Pink Floyd - Us And Them Chords & Tabs

 

Us And Them Chords & Tabs

Pink Floyd Chords & Tabs

Version: 3 Type: Bass Tab 0 ratings
1 star 2 stars 3 stars 4 stars 5 stars
comments

Us And Them Bass Tab

Standard Tuning (EADG)- low to high

Riff 1
G--------------------------------------------------------------------------|
D--------------------------------------------------------------------------|
A-5--5-5-5-5--5-5--5-5-5-5-5--5--2--2-2-2--2-2--2-2-2--4--4-4-4--4--4-4-4--|
E--------------------------------------------------------------------------|

G----------------------------------------------|
D----------------------------------------------|
A-----------------------5--5-5-5-5--5-5--5-5-5-|
E-3--3-3-3-3--3-3--3-3-3-----------------------|
[ Tab from: http://www.guitartabs.cc/tabs/p/pink_floyd/us_and_them_btab_ver_3.html ]
Riff 2
G---------------------------------------------------------|
D---------------------------------------------------------|
A-5-4-2--2-2-2-2--2-2--2-2-0----------------3--3-3-3-3--3-|
E-----------------------------3--3-3-3-3--3---------------|

G--------------------------------------------------|
D--------------------------------------------------|
A-2-2-2-2--2-2--2-2-0----------------3--3-3-3-3--3-|
E----------------------3--3-3-3-3--3---------------|

Order:
Riff 1 (x4)
Riff 2 (x2)
Riff 1 (x2)
Riff 2 (x2)
Riff 1 (x2)
Riff 2 (x2)
Riff 1 (x2)
Riff 2 (x2)
Comments