Pink Floyd - Time Breathe Reprise Chords & Tabs

 

Time Breathe Reprise Chords & Tabs

Pink Floyd Chords & Tabs

Version: 1 Type: Tab 0 ratings
1 star 2 stars 3 stars 4 stars 5 stars
comments

Time Breathe Reprise Tab

   
Time and BreatheReprise- Pink Floyd
Album= Dark Side Of The Moon
.= sticato
^=bend up
/=slide
Slide down
$= pick up slow
I skipped all the dinging in the beginning so here it is…
Plus on the bend up from B to c# go on an electric, almost impossible on an acoustic.
	F#m				A		    Asus4     A      E
E-------------0---0---------0.---0.--------------------------------------------------0---0------
B-------------0---0---------0.---0.----------2---2.---2.--------3-----2--------------0---0-------
G-------------0-- 0---------0.---0.----------2---2.---2.--------2---- 2--------------1---1--------
D--------4----4---4-----4---4.-- 4-----------2---2.---2.------- 2---- 2----------2-- 2---2---------
A--------4----4-- 4-----2-- 4.—  4.----------0---0.—--0.--0---- 0--------------- 2-  2---------
E--------2----2.--2.----2---2.-- 2.--------------------------------------------  0---0---0--------

[ Tab from: http://www.guitartabs.cc/tabs/p/pink_floyd/time_breathe_reprise_tab.html ]
	F#m					F#m		            A
E--------------0-- 0--------------------------------0.-0.--------5------------7-/-9------
B--------------0-- 0--------2-----------------------0.-0.--------5--------5---x-/-x-------
G------------- 0-- 0--------4^--4--2-2--------------0.-0.--------6---4/6-----7--/-9------
D--------4---- 4---4----------------------2-2------ 4--4.--------4.-------------------------------------
A--------4---- 4-- 4--------------------------------4- 4.------- 4.-------------------------------------
E--------2---- 2.--2.-------------------------------2--2.--------2.-------------------------------------
	
		E			F#m
E--9---9---7----------0.--0.-------0------------------------------------------------------------
B--x---x---x----------0.--0.----- -0-------Repeat F#m pattern from above2x---------------
G--9--9----7----------1.--1.-------1--------------------------------------------------------
D-------------------2--2.--2.---2--2---------------------------------------------------------
A-------------------2--2.--2.---2--2-------------------------------------------------------------
E-------------------0--0.--0.---0--0------------------------------------------------------------
       Dmaj7	Amaj7				Dmaj7	   C#m7	Bm7		E
E -----5----------x-----------------------------5------------4----------2------------------0----
B-----7----------7--------Repeat again----------7------------6----------2------------------0----
G-----6----------9-----------But add sticato ---6------------4----------3----------------- 1--
D-----7----------8---------On2nd amaj7----------7------------7----------2------------------2-----
A-----5----------x------------------------------5------------4----------4------------------2-----
E-----5----------5------------------------------5------------4----------2------2^2--0----  0------

After you repeat it, the song breaks into Breathe Reprise
Bm7		Bo7	Em			A		Asus4
E--2----------3--------------------- 0-------0------------0---0-- 0----0----0---------------------
B--2----------0--------------------- 0-$-----0------ 2----2---2-- 2----3----3-----------------------
G--3---2x----1---------------------  0-------0-------2----2---2---2--- 2----2-----------------------
D--2----------0-------------- 2------2------ 2-------2----2---2---2--- 2----2-------------------
A--4------------------------- 2----- 2------ 2------------0---0---0----0----0------------------
E--2----------------------------------------------------------------------------------------

Repeat w/ different rhythms 
Andrew
Comments