Pink Floyd - The Thin Ice Live Chords & Tabs

 

The Thin Ice Live Chords & Tabs

Pink Floyd Chords & Tabs

Version: 1 Type: Tab 0 ratings
1 star 2 stars 3 stars 4 stars 5 stars
comments

The Thin Ice Live Tab

   
Title: The Thin Ice
Artist: Pink FLoyd
Tabb BY: Daniel "Arnni" Greenwood
Comments: Excellent song off the wall, truly an oustanding peice of vocals from gilmour
and rick piano work. and those striking lyrics from roger work well. The solo is quite
easy but very effective!! This is one of my fav song on the whole album

standard tuneing

Intro baby effects


Verse

C               Am
Mamma loves her baby

F               G
and daddy loves you too

C                    Am
and the sea may look warm to you babe

F                    G
and the sky may look blue

C  G  F  C/G  Am
Ooooooooooooh babe

C  G  F  C/G  Am    Am7  Am6
Oooooooh baby blue

C  G  F  C  Am  D7  G
Ooooooooooh ooooooh babe

C                Am
If you should go skating

       F                        G
On the thin ice of modern life

C                       Am
Dragging behind you the silent reproach

     Fmaj7                 G
Of a million  tear stained eyes

C                         Am
Dont be surprised, when a crack in the ice

F                  G
Appears under your feet

         C          Em        Am
You slip out of your depth and out of your mind

          F                        G
With your fear flowing out  behind you

N.C.
As you claw the thin ice

Guitar solo

e|------------------------|----------5---5----------------------------------|
B|------------------------|--------5---8------------------------------------|
G|-7b(9)-7----7b(10)--7/9-|-7b(9)-----------7-7b(7)--5---5------------------|
D|------------------------|----------------------------7---7-6-5------------|
A|------------------------|--------------------------------------7-6-5-3--3-|
E|------------------------|---------------------------------------------5---|
[ Tab from: http://www.guitartabs.cc/tabs/p/pink_floyd/the_thin_ice_live_tab.html ]
Guitar 2(plays same time as solo)
    E       D     F      E     A
e|-------------------------|------------------------------------------------|
B|-------------------------|------------------------------------------------|
G|--9-------7-----10----9--|---2~-------------------------------------------|
D|--9-------7-----10----9--|---2~-------------------------------------------|
A|--7-------5------8----7--|---0~-------------------------------------------|
E|-------------------------|-3----------------------------------------------|

e|-----------------|----------------17-----------17-------17--------17------|
B|-----------------|--------------17----20B(22)--20B(22)--20B(22)---20B(22)-|
G|-9---7---10---9--|----2~---19B(21)----------------------------------------|
D|-9---7---10---9--|----2~--------------------------------------------------|
A|-7---5----8---7--|----0~--------------------------------------------------|
E|-----------------|-12/----------------------------------------------------|

Guitar 2
e|-----------------------|--------------------------------------------------|
B|-----------------------|--------------------------------------------------|
G|--9-----7-----10----9--|---2~--------------2------------------------------|
D|--9-----7-----10----9--|---2~--------------2------------------------------|
A|--7-----5------8----7--|---0~--------------0------------------------------|
E|-----------------------|--------------------------------------------------|


                                                       RAKE              C
e|------------------------|-----------------------------15--17b(19)--|------|
B|--15b(17)-15-15b(18)-15-|---15b(17)-------15--------15-------------|--17--|
G|------------------------|-------------------------16---------------|--17--|
D|------------------------|------------------------------------------|--17--|
A|------------------------|------------------------------------------|--15--|
E|------------------------|------------------------------------------|------|

Guitar 2

    E       D     F      E       G                                       C
e|-------------------------|-----------------------------------------|------|
B|-------------------------|-----12----------------------------------|------|
G|--9-------7-----10----9--|-----12~---------------------------------|---5--|
D|--9-------7-----10----9--|-----12~---------------------------------|---5--|
A|--7-------5------8----7--|-----10~---------------------------------|---3--|
E|-------------------------|-----------------------------------------|------|
Comments