Pink Floyd - The Final Cut Chords & Tabs

 

The Final Cut Chords & Tabs

Pink Floyd Chords & Tabs

Version: 1 Type: Tab 0 ratings
1 star 2 stars 3 stars 4 stars 5 stars
comments

The Final Cut Tab

   
Guitar Solo.
Heavy reverb, Slight delay, Slight distortion.

Legend:
~ = Vibrato
B = Bend
R = Return Bend to...
P = Pull off
/ = Slide Up
/ = Slide Down
+ = Stop Note

----13b15~~~~~~~---20p17~~~~~---------------13+-13b15~~~~~-------13+--12p10-------|
-----------------------------------------13+---------------------------------13~~-|
----------------------------------------------------------------------------------|
----------------------------------------------------------------------------------|
----------------------------------------------------------------------------------|
----------------------------------------------------------------------------------|
[ Tab from: http://www.guitartabs.cc/tabs/p/pink_floyd/the_final_cut_tab.html ]
-------------12--12/13--12---------------------------------------------------------|
----13--15----------------15-15~~~--13/15--13--------------------------------------|
---------------------------------------------14--14~~~-10--12--12b14r12-14p12-10\+-|
-----------------------------------------------------------------------------------|
-----------------------------------------------------------------------------------|
-----------------------------------------------------------------------------------|

 (While still holding bend)
              ^
              |
---15b17~~~b19r15--15~~~-------13+-13b15~~---13+-12p10-----------------------------|
-----------------------------13+------------------------13+-11+--------------------|
----------------------------------------------------------------14p12--10~~~-------|
-----------------------------------------------------------------------------------|
-----------------------------------------------------------------------------------|
-----------------------------------------------------------------------------------|
Comments