Pink Floyd - Run Like Hell Chords & Tabs

 

Run Like Hell Chords & Tabs

Pink Floyd Chords & Tabs

Version: 2 Type: Tab 0 ratings
1 star 2 stars 3 stars 4 stars 5 stars
comments

Run Like Hell Tab

   
Title: Run Like Hell
Artist: Pink Floyd
Album: The Wall

Instrument: 6 String Guitar

Tabbed by: Ben (byoung88@comcast.net)

Tuning: Standard (E A D G B E)


[ Tab from: http://www.guitartabs.cc/tabs/p/pink_floyd/run_like_hell_tab_ver_2.html ]
Intro
E|-------------------------------------------------------------------||
B|-------------------------------------------------------------------||
G|-------------------------------------------------------------------||
D|--0-0-0-0-0--3-5-0-0-0-0-0-----------------------------------------||
A|-------------------------------------------------------------------||
E|-------------------------------------------------------------------||
P.M. ----------------------- 
After playing this a few times it goes to.. 
E|-10-10---9---7-7--5--5-5--3--5-5--2-2-2----------------------------||x2
B|-10-10---10--8-8--7--5-5--3--5-5--3-3-3----------------------------||
G|-11-11---9---7-7--7--6-6--4--6-6--2-2-2----------------------------||
D|-------------------------------------------------------------------||
A|-------------------------------------------------------------------||
E|-------------------------------------------------------------------||
Then to the Verse...

F               A           
Run, Run, Run, Run, Run, Run, Run, Run, 
D
Run, Run, Run, Run, Run, Run, Run, Run.
E
You better make your face up in
Your favorite disguise.
F
With your button down lips and your
Roller blind eyes.
E
With your empty smile 
And your hungry heart.
C
Feel the bile rising from your guilty past.
B
With your nerves in tatters
When the cockleshell shatters
E
And the hammers batter 
Down the door.
You'd better run.

And then back to the intro and so forth.
Comments