Pink Floyd - Run Like Hell Chords & Tabs

 

Run Like Hell Chords & Tabs

Pink Floyd Chords & Tabs

Version: 3 Type: Bass Tab

Run Like Hell Bass Tab

   
Run Like Hell
Pink Floyd
The Wall

Start Playing This From When The Drums Come In To Run..Run..

G:---------------------------------------------------------------------------|
D:---------------------------------------------------------------------------|
A:-5-5-5-5-5-5-5-5-5-5-5-5-5-5-5-5-5-5-5-5-5-5-5-5-5-5-5-5-5-5-5-5-5-5-5-5-5-|
E:---------------------------------------------------------------------------|

Run....Run....Run. If you listen you can tell when to change note

G:----------------------------------------------------------------|
D:----------------------------------------------------------------|
A:--------------------------------5-5-5-5-5-5-5-5-5-5-5-5-5-5-5-5-|
E:1-1-1-1-1-1-1-1/-5-5-5-5-5-5-5-5--------------------------------|
[ Tab from: http://www.guitartabs.cc/tabs/p/pink_floyd/run_like_hell_btab_ver_3.html ]
Verse
G:----------------------------------------------------------------|
D:----------------------------------------------------------------|
A:------------------------------------------------3-3-3-3-3-3-3-3-|
E:0-0-0-0-0-0-0-0-1-1-1-1-1-1-1-1-0-0-0-0-0-0-0-0-----------------|
  You Better..    With your..     With your..     See the....

G:---------------------------------------------------------------|
D:---------------------------------------------------------------|
A:2-2-2-2-2-2-2-2-----------------5-5-5-5-5-5-5-5----------------|
E:----------------0-0-0-0-0-0-0-0--------------------------------|
  With Your..     And The Hammers You Better Run

G:---------------------------------------------------------------------------|
D:---------------------------------------------------------------------------|
A:-5-5-5-5-5-5-5-5-5-5-5-5-5-5-5-5-5-5-5-5-5-5-5-5-5-5-5-5-5-5-5-5-5-5-5-5-5-|
E:---------------------------------------------------------------------------|

Repeat The Verse For The Synth Solo except for 8 beats play

G:-----------------|
D:-----------------|
A:-5-5-5-5-5-5-5-5-|
E:-----------------|

And That's It