Pink Floyd - Pigs On The Wing Solo Chords & Tabs

 

Pigs On The Wing Solo Chords & Tabs

Pink Floyd Chords & Tabs

Version: 1 Type: Tab 0 ratings
1 star 2 stars 3 stars 4 stars 5 stars
comments

Pigs On The Wing Solo Tab

Pink Floyd - Pigs On the Wing (solo)

Well, this is my first tab ever, so it might not be too accurate.
I didn't use the original recording from 'Animals' but a different one
solo's are practically the same though...
I only tabbed the solo, the chords can be found elsewhere.
Feel free to sent comments or alterations to me: ijffje@hotmail.com

IJff


-----------------------------------------------------------
--15s17-17-13-15-17-17b18-15-17-15-13-15b17-15-13-12-13-12-
-----------------------------------------------------------
-----------------------------------------------------------								
-----------------------------------------------------------                                                              
-----------------------------------------------------------
[ Tab from: http://www.guitartabs.cc/tabs/p/pink_floyd/pigs_on_the_wing_solo_tab.html ]
-----------------------------------------------12-15-17-15-
-----17b20 17b20 15 17 17 17b20 15 17 17----13-------------
--12-------------------------------------14----------------
-----------------------------------------------------------
-----------------------------------------------------------
-----------------------------------------------------------

--14-------------------------------------------------------
-----15----------------------------------------------------
--------14-12-11-------------------------------------------
-----------------12------12-12s14-14-14-14s16-16-16-16b17--
--------------------12-9-----------------------------------
-----------------------------------------------------------

--------------------15-15-15h17h15h17-15-------------------
-----------------------------------------15h17p15-15b17b15-
-----------------------------------------------------------
--17b19-19b21-19b22----------------------------------------
-----------------------------------------------------------
-----------------------------------------------------------

-----------------------------------------------------------
--12-------------------------------------------------------
----14-14b16-----------------------------------------------
-----------------------------------------------------------
-------------10-10-12s14-10-10-----------------------------
-----------------------------------------------------------


Comments