Pink Floyd - One Of The Few Chords & Tabs

 

One Of The Few Chords & Tabs

Pink Floyd Chords & Tabs

Version: 1 Type: Tab 0 ratings
1 star 2 stars 3 stars 4 stars 5 stars
comments

One Of The Few Tab

One of the few
Part 2 of the wall - The final cut
[ Tab from: http://www.guitartabs.cc/tabs/p/pink_floyd/one_of_the_few_tab.html ]
E|------------|------------|-----------|-----------
B|----11---11-|----10---10-|----8----8-|6-3-3~~~---
G|-7-----7----|-7-----7----|-7----7----|-----------
D|------------|------------|-----------|-----------
A|------------|------------|-----------|-----------
E|------------|------------|-----------|-----------

E|------------|------------|-----------|-----------
B|----13---13-|---11---11--|----8---8--|6-3-3~~~---
G|-7-----7----|-7----7-----|-7----7----|-----------
D|------------|------------|-----------|-----------
A|------------|------------|-----------|-----------
E|------------|------------|-----------|-----------

The End
Comments