Pink Floyd - Nobody Home Chords & Tabs

 

Nobody Home Chords & Tabs

Pink Floyd Chords & Tabs

Version: 2 Type: Tab 0 ratings
1 star 2 stars 3 stars 4 stars 5 stars
comments

Nobody Home Tab

   
e|-12-----12--12-------------12----------------------------------------0-|
B|-13-----13-----15-13h15p13-13--13---------15------10--9--9-----------1-|
G|-14--14-13-----------------12-----12-9----14------10--10---10--------0-|
D|---------------------------------------10-12------10--10------10-----2-|
A|----------------------------------------------5-7-8---8----------8-3-3-|

(Verse chords)

           C
I've got a little black book with my poems in...

      Bm
got a bag with a toothbrush and a comb in...

    F                                       C
but im a good dog sometimes they throw me a boney...
[ Tab from: http://www.guitartabs.cc/tabs/p/pink_floyd/nobody_home_tab_ver_2.html ]
(Pretty much the same each time...except for...)

amazing powers of observation....

G|-9---9--6--4--4---5-|
D|-10--9--7--4--5---6-|
A|-10--9--7--4--5---6-|
E|-8---7--5--2--3---4-|


e|-12---------12-12-12--------------------------12-----------------------0-|
B|-13---------13-13-13--------------------------13-15-10--9--9-----------1-|
G|-14---------14-13-12--------------------------12-14-10--10---10--------0-|
D|-------------------------------------------------12-10--10------10-----2-|
A|----------------------------------------------------8---8----------8-3-3-|
   Oooo...Babe          When I pick up the phone             There's still
nobody home

That's pretty much the entire song, complaments of zerodestructo
Comments