Pink Floyd - Money Chords & Tabs

 

Money Chords & Tabs

Pink Floyd Chords & Tabs

Version: 6 Type: Tab

Money Tab

   
-----------------------------------------------------------------------------
			     Money - Pink Floyd
-----------------------------------------------------------------------------

Tabbed by:Matthew Russell
Email:matsprouts@aol.com
Album:Dark Side of the Moon
Tuning:EADGBe

At the start, bass guitar is like this:
Riff A
G|------4-----------------|
D|--------4---------------|
A|--2-------2--------2--5-|
E|-------------2--5-------|

The lead guitar picks this up and then after 12 times play Riff B once:
Riff B
e|-----------------------------------------------|
B|-----------------------------------------------|
G|-----------------------------------------------|
D|---4--4--4--------------4-3-2------------------|
A|------------4--------4--------2-------0--2--5--|
E|---------------2--5-------------0--3-----------|

Play Riff A 10 times then Riff B again, then play Riff A 10 times. Now they play Riff A 
note higher but i call it Riff C:
Riff C
e|------------------------|
B|------------------------|
G|------5-----------------|
D|--------5---------------|
A|--3-------3--------3--6-|
E|-------------3--6-------|

Play Riff C 4 times, then Riff A 4 times, then Riff B then this:
e|--------------------------------------------------------------------------|
B|--------------------------------------------------------------------------|
G|--4--4--4--4--4--4--4--4--4--4--4--4--4--4--4--4--4--4--4--4--4--4--------|
D|--4--4--4--4--4--4--4--4--4--4--4--4--4--4--4--4--4--4--4--4--4--4--------|
A|--2--2--2--2--2--2--2--2--2--2--2--2--2--2--2--2--2--2--2--2--2--2--------|
E|--------------------------------------------------------------------------|

Then the solo:
e|------------------------------------------------12------------------------|
B|------------10--7--10---------7--10--7----12-12----12-12---10---7---------|
G|---9--7----------------9--7-----------------------------------9---7~~~~---|
D|--------------------------------------------------------------------------|
A|--------------------------------------------------------------------------|
E|--------------------------------------------------------------------------|

e|----------7-9-9-11-12>-10--14>--12-10-------------------------------------|
B|------7-9-----------------------------12-10-------------------------------|
G|--7/9---------------------------------------12-10-9-7---------------7-8-9>|
D|------------------------------------------------------9-7------7-9--------|
A|----------------------------------------------------------9--9------------|
E|--------------------------------------------------------------------------|

e|--------------7-9-9-11-12>-10--14>--12-10---------------------------------|
B|----------7-9-----------------------------12-10----------11-9-9-----------|
G|7~~-7>-9>---------------------------------------12-10-9---------11-11-9---|
D|------------------------------------------------------------------------11|
A|--------------------------------------------------------------------------|
E|--------------------------------------------------------------------------|
[ Tab from: http://www.guitartabs.cc/tabs/p/pink_floyd/money_tab_ver_6.html ]
e|--------------------------------------------------------------------------|
B|--------------------------------------------------------------------------|
G|--------------------------------------------------------------------------|
D|-9----------------------------------7/9--9--9-9-9-11--7--10>10>9-8--7-7-7-|
A|---11--13~~-9--14~~-9--15>15>15>15>---------------------------------------|
E|--------------------------------------------------------------------------|

e|--------------------------------------------------------------------------|
B|------------------------------------------------------7-9---7-9-10>10>-9-8|
G|----------9>-9>9>-9>-8>-9>-10>-9>-10>-11>-10>-9>-8>-----------------------|
D|7-7-7/10------------------------------------------------------------------|
A|--------------------------------------------------------------------------|
E|--------------------------------------------------------------------------|

e|--------------------------------------------------------------------------|
B|-8-8-8-7-7~~--11-9-9------------------------------------------------------|
G|-------------------11-11-9--------------------------7-8-9-8-9-10-11>-9-10-|
D|---------------------------11-9-------------------------------------------|
A|--------------------------------11--13~~-9--14~~-9------------------------|
E|--------------------------------------------------------------------------|

e|--------------------------------------------------------------------9-11>-|
B|---7-9>-9>-9>-9>-9>-7--------------11>-10-9-8--8-7------7-8-9~~~~---------|
G|9----------------------7-8-9-9>-7------------------9-7--------------------|
D|--------------------------------------------------------------------------|
A|--------------------------------------------------------------------------|
E|--------------------------------------------------------------------------|

e|11>-11>-11>-9---11>-9--9-8--8-10--10-10-12>-10-12>---12-14>-14>-14>-14>-12|
B|--------------------------------------------------------------------------|
G|--------------------------------------------------------------------------|
D|--------------------------------------------------------------------------|
A|--------------------------------------------------------------------------|
E|--------------------------------------------------------------------------|

e|-10---12-10-------------------------------------|
B|------------12-10-------------------------------|
G|------------------12-11-10-9-7---9-7------------|
D|-------------------------------------9-7--------|
A|-----------------------------------------9-7-5-3|
E|------------------------------------------------|

Play Riff A six times, then play Riff B, then repeat Riff D as many times as you like:
Riff D
e|------------|------------|
B|------------|------------|
G|-----4------|-----4------|
D|-------4----|-------4----|
A|-2--------5-|-2--------5-|
E|------------|------------|

Then finish with this:
e|----------------------------|
B|----------------------------|
G|------4---------------------|
D|--------4-------------------|
A|--2-------2--------2--5~~~-2|
E|-------------2--5-----------|

| /  slide up
| >  bend
| ~  tremelo
Thats it.
PINK FLOYD FOREVER AND EVER AND EVER AND EVER AND EVER AND EVER AND EVER AND
EVER AND EVERAND EVER AND EVER AND EVER AND EVER AND EVER AND EVER AND EVER
=============================================================================