Pink Floyd - Money Chords & Tabs

 

Money Chords & Tabs

Pink Floyd Chords & Tabs

Version: 5 Type: Tab 0 ratings
1 star 2 stars 3 stars 4 stars 5 stars
comments

Money Tab

   
                                      MONEY
                            As recorded by Pink Floyd
                   (From the 1973 Album DARK SIDE OF THE MOON)

Transcribed by www.mikesguitarsite.co.uk

          B5                   F#m                  Em
      x 2 4 4 0 x          2 4 4 2 2 2          0 2 2 0 0 0

Gtr I (E A D G B E) - 'Main riff rhythm overdrive'
Gtr II (E A D G B E) - 'rhythm w/tremolo'
Gtr III (E A D G B E) - 'rhythm fills'
Gtr IV (E A D G B E) - 'lead (w/reverb)'
Gtr V (E A D G B E) - 'lead (dry)'
Gtr VI (E A D G B E) - 'Roger Waters - Bass'

 Intro
  Q=125(8=s8)
 7/4
  Gtrs I, VI
|--------------------------|-----------------------------|
|----h4-(4)----------------|----h4-----------------------|
|-----4--------------------|-----4-----------------------|
|--------4-----------------|-------4---------------------|
|-2---------2--------2--5--|-2-------2--------2p0-5b5.5--|
|--------------2--5--------|------------2--5-------------|


|------------------------------|----------------------------|
|------------------------------|----------------------------|
|----4-(4)---------------------|----4-(4)-------------------|
|-------4----------------------|-------4--------------------|
|-2--------2-x-------2--5b5.5--|-2--------2-x-------2--5----|
|--------------2--5------------|--------------2--5----------|


  B5
  Gtr II
  |
  /

  Gtrs I, VI
|-------------------------------|-------------------------------|
|-------------------------------|-------------------------------|
|----4--------------------------|----4--------------------------|
|------4------------------------|------4------------------------|
|-2----------2------------2--5--|-2----------2------------2--5--|
|---------------2--5b5.5--------|---------------2--5b5.5--------|
|
| Gtr III
|-------------------------------|-------------------------------|
|----7-7b7.5--------------7-----|----7-7b7.5----7---------7-----|
|----7-7b7.5--------------7-----|----7-7b7.5----7---------7-----|
|-------------------------------|-------------------------------|
|-------------------------------|-------------------------------|
|-------------------------------|-------------------------------|


  |
  /

|---------------------------|-----------------------------||
|---------------------------|-----------------------------||
|----4----------------------|----4------------------------||
|------4--------------------|------4----------------------||
|-2------2------------2--5--|-2------2------------2--5----||
|-----------2--5b5.5--------|-----------2--5b5.5----------||
|
|-----------7---------7-----|-----------7---------7-------||
|----7-7----7---------7-----|----7-7----7---------7-------||
|----7-7--------------7-----|----7-7--------------7-------||
|---------------------------|-----------------------------||
|---------------------------|-----------------------------||
|---------------------------|-----------------------------||


 Verse 1
  B5
  |                                                  |
  /                                                  /

|---------------------------|---------------------------|
|---------------------------|---------------------------|
|----4----------------------|----4----------------------|
|------4--------------------|------4--------------------|
|-2------2------------2--5--|-2------2------------2--5--|
|-----------2--5b5.5--------|-----------2--5b5.5--------|
|
|---------------------------|---------------------------|
|----7-7----7---------------|----7-7----7---------------|
|----7-7----7---------------|----7-7----7---------------|
|---------------------------|---------------------------|
|---------------------------|---------------------------|
|---------------------------|---------------------------|


  |
  /

|-------------------------------|------------------------------|
|-------------------------------|------------------------------|
|-------------------------------|----4-(4)---------------------|
|-------------------------------|-------4----------------------|
|-2------5--2------------2-0-5--|-2--------2-x-------2--0-5----|
|------------------2--5---------|--------------2--5------------|
|
|-------------------------------|--------------7---------------|
|-7b7.5-----7b7.5---------------|----7--7------7-----7---------|
|-7b7.5-----7b7.5---------------|----7--7------7-----7---------|
|-------------------------------|------------------------------|
|-------------------------------|------------------------------|
|-------------------------------|------------------------------|


  B5
  |                                                  |
  /                                                  /

|---------------------------|---------------------------|
|---------------------------|---------------------------|
|----4----------------------|----4----------------------|
|------4--------------------|------4--------------------|
|-2------2------------2--5--|-2------2------------2--5--|
|-----------2--5b5.5--------|-----------2--5b5.5--------|
|
|---------------------------|---------------------------|
|----7-7----7---------------|----7-7----7---------------|
|----7-7----7---------------|----7-7----7---------------|
|---------------------------|---------------------------|
|---------------------------|---------------------------|
|---------------------------|---------------------------|


  |
  /

|-------------------------------|---------------------------------||
|-------------------------------|---------------------------------||
|-------------------------------|----4-(4)------------------------||
|-------------------------------|-------4-------------------------||
|-2------5--2------------2-0-5--|-2-----------2-x-------2--0-5----||
|------------------2--5---------|-----------------2--5------------||
|
|-------------------------------|---------------------------------||
|-7b7.5-----7b7.5---------------|----7--7b7.5-----7-----7---------||
|-7b7.5-----7b7.5---------------|----7--7b7.5-----7-----7---------||
|-------------------------------|---------------------------------||
|-------------------------------|---------------------------------||
|-------------------------------|---------------------------------||


  Gtrs I, VI
|-----------------------|----------------------------|
|-----------------------|----------------------------|
|-----------------------|----------------------------|
|--4----4------------4--|-3---2-x--------------------|
|---------4-------4-----|-------------------0--2--5--|
|-----------2--5--------|---------0b0.5--3-----------|
|
| Gtr II                                             G
|  >                          >
|-^2--------------------|----^0----------------------|
|-^2--------------------|----^0----------------------|
|-^2--------------------|----^0----------------------|
|-^4--------------------|----^2----------------------|
|-^4--------------------|----^2----------------------|
|-^2--------------------|----^0----------------------|


|---------------------------|-----------------------------||
|---------------------------|-----------------------------||
|----4----------------------|----4------------------------||
|------4--------------------|------4----------------------||
|-2------2------------2--5--|-2------2------------2--5----||
|-----------2--5b5.5--------|-----------2--5b5.5----------||
|
|tr III
|---------------------------|-----------------------------||
|----7-7----7---------------|----7-7----7-----------------||
|----7-7----7---------------|----7-7----7-----------------||
|---------------------------|-----------------------------||
|---------------------------|-----------------------------||
|---------------------------|-----------------------------||


 Verse 2
  B5
  Gtr II
  |                                                  |
  /                                                  /

  Gtrs I, VI
|---------------------------|---------------------------|
|---------------------------|---------------------------|
|----4----------------------|----4----------------------|
|------4--------------------|------4--------------------|
|-2------2------------2--5--|-2------2------------2--5--|
|-----------2--5b5.5--------|-----------2--5b5.5--------|
|
| Gtr III
|---------------------------|---------------------------|
|----7-7----7---------------|----7-7----7---------7-----|
|----7-7----7---------------|----7-7----7---------7-----|
|---------------------------|---------------------------|
|---------------------------|---------------------------|
|---------------------------|---------------------------|


  |
  /

|-------------------------------|------------------------------|
|-------------------------------|------------------------------|
|-------------------------------|----4-(4)---------------------|
|-------------------------------|-------4----------------------|
|-2------5--2------------2-0-5--|-2--------2-x-------2--0-5----|
|------------------2--5---------|--------------2--5------------|
|
|-------------------------------|------------------------------|
|-7b7.5-----7b7.5---------------|----7--7------7-----7---------|
|-7b7.5-----7b7.5---------------|----7--7------7-----7---------|
|-------------------------------|------------------------------|
|-------------------------------|------------------------------|
|-------------------------------|------------------------------|


  B5
  |                                                  |
  /                                                  /

|---------------------------|---------------------------|
|---------------------------|---------------------------|
|----4----------------------|----4----------------------|
|------4--------------------|------4--------------------|
|-2------2------------2--5--|-2------2------------2--5--|
|-----------2--5b5.5--------|-----------2--5b5.5--------|
|
|---------------------------|---------------------------|
|----7-7----7---------------|----7-7----7---------7-----|
|----7-7----7---------------|----7-7----7---------7-----|
|---------------------------|---------------------------|
|---------------------------|---------------------------|
|---------------------------|---------------------------|


  |
  /

|-------------------------------|------------------------------||
|-------------------------------|------------------------------||
|-------------------------------|----4-(4)---------------------||
|-------------------------------|-------4----------------------||
|-2------5--2------------2-0-5--|-2--------2-x-------2--0-5----||
|------------------2--5---------|--------------2--5------------||
|
|-------------------------------|------------------------------||
|-7b7.5-----7b7.5---------------|----7--7------7-----7---------||
|-7b7.5-----7b7.5------------9--|----7--7------7-----7---------||
|--------9----------------------|------------------------------||
|-------------------------------|------------------------------||
|-------------------------------|------------------------------||


  F#m                       Em
  |                         |
  /                         /

|----------------------|---------------------------|
|----------------------|---------------------------|
|----------------------|---------------------------|
|-4----4------------4--|-3--2-x--------------------|
|--------4-------4-----|------------------0--2--5--|
|----------2--5--------|--------0b0.5--3-----------|
|
|----------------------|---------------------------|
|----------------------|---------------------------|
|----------------------|---------------------------|
|----------------------|---------------------------|
|----------------------|---------------------------|
|----------------------|---------------------------|


  B5
  |                           |
  /                           /

|---------------------------|--------------------------------||
|---------------------------|--------------------------------||
|----4----------------------|-----4--------------------------||
|------4--------------------|--------4-----------------------||
|-2------2------------2--5--|-2---------2------------2--5----||
|-----------2--5b5.5--------|--------------2--5b5.5----------||
|
|---------------------------|----10-10\----------------------||
|----7-7----7---------7-----|----10-10\----7---------7-------||
|----7-7----7---------7-----|--------------7---------7-------||
|---------------------------|--------------------------------||
|---------------------------|--------------------------------||
|---------------------------|--------------------------------||


 Sax Solo
  B5
  |                       |
  /                       /

|-----------------------|-----------------------|
|-----------------------|-----------------------|
|----4------------------|----4------------------|
|------4----------------|------4----------------|
|-2------2--------2--5--|-2------2--------2--5--|
|-----------2--5--------|-----------2--5--------|
|
|-----------------------|-----------------------|
|----7-7----7-----7-----|----7-7----7-----7-----|
|----7-7----7-----7-----|----7-7----7-----7-----|
|-----------------------|-----------------------|
|-----------------------|-----------------------|
|-----------------------|-----------------------|


  |                       |
  /                       /

|-----------------------|-------------------------|
|-----------------------|-------------------------|
|----4------------------|----4--------------------|
|------4----------------|------4------------------|
|-2------2--------2--5--|-2------2--------2--5----|
|-----------2--5--------|-----------2--5----------|
|
|-----------------------|-------------------------|
|----7-7----7-----7-----|-7------------7----------|
|----7-7----7-----7-----|-7------------7----------|
|-----------------------|----9--------------------|
|-----------------------|-------------------------|
|-----------------------|-------------------------|


  B5
  |                       |
  /                       /

|-----------------------|--------------------------|
|-----------------------|--------------------------|
|----4------------------|-----4--------------------|
|------4----------------|--------4-----------------|
|-2------2--------2--5--|-2---------2--------2--5--|
|-----------2--5--------|--------------2--5--------|
|
|-----------------------|----10-10\----------------|
|----7-7----7-----7-----|----10-10\----x-----7-----|
|----7-7----7-----7-----|--------------x-----7-----|
|-----------------------|--------------------------|
|-----------------------|--------------------------|
|-----------------------|--------------------------|


  |                       |
  /                       /

|-----------------------|-------------------------|
|-----------------------|-------------------------|
|----4------------------|----4--------------------|
|------4----------------|------4------------------|
|-2------2--------2--5--|-2------2--------2--5----|
|-----------2--5--------|-----------2--5----------|
|
|-----------------------|-------------------------|
|----7-7----7-----7-----|----7-7----7-----7-------|
|----7-7----7-----7-----|----7-7----7-----7-------|
|-----------------------|-------------------------|
|-----------------------|-------------------------|
|-----------------------|-------------------------|


  Em
  |                       |
  /                       /

|-----------------------|-----------------------|
|----5------------------|----5------------------|
|------4----------------|------4----------------|
|-2------2--------2--5--|-2------2--------2--5--|
|-----------2--5--------|-----------2--5--------|
|-----------------------|-----------------------|
|
|----7-7----7-----7-----|----7-7----7-----7-----|
|----8-8----8-----8-----|----8-8----8-----8-----|
|----7-7----7-----7-----|----7-7----7-----7-----|
|-----------------------|-----------------------|
|-----------------------|-----------------------|
|-----------------------|-----------------------|


  |                       |
  /                       /

|-----------------------|-------------------------|
|----5------------------|----5--------------------|
|------4----------------|------4------------------|
|-2------2--------2--5--|-2------2--------2--5----|
|-----------2--5--------|-----------2--5----------|
|-----------------------|-------------------------|
|
|----7-7----7-----7-----|----7-7----7-----7-------|
|----8-8----8-----8-----|----8-8----8-----8-------|
|----7-7----7-----7-----|----7-7----7-----7-------|
|-----------------------|-------------------------|
|-----------------------|-------------------------|
|-----------------------|-------------------------|


  B5
  |                       |
  /                       /

|-----------------------|-----------------------|
|-----------------------|-----------------------|
|----4------------------|----4------------------|
|------4----------------|------4----------------|
|-2------2--------2--5--|-2------2--------2--5--|
|-----------2--5--------|-----------2--5--------|
|
|-----------------------|-----------------------|
|----7-7----7-----7-----|----7-7----7-----7-----|
|----7-7----7-----7-----|----7-7----7-----7-----|
|-----------------------|-----------------------|
|-----------------------|-----------------------|
|-----------------------|-----------------------|


  |                       |
  /                       /

|-----------------------|-------------------------|
|-----------------------|-------------------------|
|----4------------------|----4--------------------|
|------4----------------|------4------------------|
|-2------2--------2--5--|-2------2--------2--5----|
|-----------2--5--------|-----------2--5----------|
|
|-----------------------|-------------------------|
|----7-7----7-----7-----|----7-7----7-----7-------|
|----7-7----7-----7-----|----7-7----7-----7-------|
|-----------------------|-------------------------|
|-----------------------|-------------------------|
|-----------------------|-------------------------|


                                                     Q.
  Gtrs I, VI
|-----------------------|----------------------------||
|-----------------------|----------------------------||
|-----------------------|----------------------------||
|--4----4------------4--|--3--2----------------------||
|---------4-------4-----|-------2-----------0--2--5--||
|-----------2--5--------|---------0--3b3.5-----------||
|
| Gtr II                                             Gt
|  >                       >
|-^2--------------------|-^0-------------------------||
|-^2--------------------|-^0-------------------------||
|-^2--------------------|-^0-------------------------||
|-^4--------------------|-^2-------------------------||
|-^4--------------------|-^2-------------------------||
|-^2--------------------|-^0-------------------------||


 =132
 12/8
|-------------------------|--------------------------|
|-------------------------|--------------------------|
|-------------------------|--------------------------|
|-4-4-4-4-4-4-4-4-4-4-4-4-|-4-4-4-4-4-4-4-4-4-4------|
|-2-2-2-2-2-2-2-2-2-2-2-2-|-2-2-2-2-2-2-2-2-2-2------|
|-------------------------|--------------------------|
|
|r III
|-------------------------|--------------------------|
|-------------------------|--------------------------|
|-------------------------|--------------------------|
|-4-4-4-4-4-4-4-4-4-4-4-4-|-4-4-4-4-4-4-4-4-4-4-4----|
|-2-2-2-2-2-2-2-2-2-2-2-2-|-2-2-2-2-2-2-2-2-2-2-2-2--|
|-------------------------|--------------------------|


 1st Guitar Solo
  Gtr IV
            ~~~~~~~~~~~~
|-----------------------------------------|------------------------------------|
|-----------------------------10b12==(10)-|-(10)---------(10)-(10)r(10)-7-10---|
|-9b11-(9)--7-(7)---(7)-------------------|------------------------------------|
|-----------------------------------------|------------------------------------|
|-----------------------------------------|------------------------------------|
|-----------------------------------------|------------------------------------|
|
| Gtrs I, VI
|-----------------------------------------|------------------------------------|
|-----------------------------------------|------------------------------------|
|-----------------------------------------|------------------------------------|
|-----------------------------------------|------------------------------------|
|-------2------5-----4---4-3-----------2--|-------2-5------4------------3----2-|
|-----------------------------------------|------------------------------------|
|
| Gtr III
|-----------------------------------------|------------------------------------|
|--------------7--------------------------|------------7-----------------------|
|--------------7--------------------------|------------7-----------------------|
|-----------------------------------------|------------------------------------|
|-----------------------------------------|------------------------------------|
|-------7------------------------------7--|----------------------------------7-|


            ~~~~~~~~~~~~~~~                 ~~
|----------------------------------10----|----------------------------|
|----------------------------11s12----12-|-12------------12---12------|
|-9b11-(9)--7-(7)---(7)------------------|----------------------------|
|----------------------------------------|----------------------------|
|----------------------------------------|----------------------------|
|----------------------------------------|----------------------------|
|
|----------------------------------------|----------------------------|
|----------------------------------------|----------------------------|
|----------------------------------------|----------------------------|
|----------------------------------------|----------------------------|
|-----------2--5-----4-----------3-----2-|-----2-5----4-----3----2----|
|----------------------------------------|----------------------------|
|
|----------------------------------------|----------------------------|
|--------------------7b7.5---------------|----------7-----------------|
|--------------------7b7.5---------------|----------7-----------------|
|----------------------------------------|----------------------------|
|----------------------------------------|----------------------------|
|--------------------------------------7-|-----------------------7----|


|-12pb14=====(12)r(12)----------------|--------------------------------|
|------------------------12-12--------|-(12)---------------------------|
|-------------------------------------|------------9b11-(9)--7---9-9---|
|-------------------------------------|--------------------------------|
|-------------------------------------|--------------------------------|
|-------------------------------------|--------------------------------|
|
|-------------------------------------|--------------------------------|
|-------------------------------------|--------------------------------|
|-------------------------------------|--------------------------------|
|-------------------------------------|--------------------------------|
|----------2---5-------------4---3--2-|-------2-5--------4-----3-----2-|
|-------------------------------------|--------------------------------|
|
|-------------------------------------|--------------------------------|
|----------------------7-----7--------|------------7-----7-------------|
|----------------------7-----7--------|------------7-----7-------------|
|-------------------------------------|--------------------------------|
|-------------------------------------|--------------------------------|
|-----------------------------------7-|------------------------------7-|


|-----------------------------|-7---------------10--12---12pb14r(12)--|
|---------------------------7-|----10-(10)s12-------------------------|
|--------------9b11-(9)-(9)---|---------------------------------------|
|-9---------------------------|---------------------------------------|
|-----------------------------|---------------------------------------|
|-----------------------------|---------------------------------------|
|
|-----------------------------|---------------------------------------|
|-----------------------------|---------------------------------------|
|-----------------------------|---------------------------------------|
|-----------------------------|---------------------------------------|
|----2-5----4--------3------2-|-----2---5--------4-----3----------2---|
|-----------------------------|---------------------------------------|
|
|-----------------------------|---------------------------------------|
|---------7-------------------|---------------7-------------------8---|
|---------7-------------------|---------------7-------------------7---|
|-----------------------------|---------------------------------------|
|-----------------------------|---------------------------------------|
|---------------------------7-|---------------------------------------|


                                             ~~~~~~~~~~~~~~~~~
|--------------10------------12b14==(12)-|-(12)---------(12)r=12-10--12-|
|-12-12-(12)-----------------------------|------------------------------|
|----------------------------------------|------------------------------|
|----------------------------------------|------------------------------|
|----------------------------------------|------------------------------|
|----------------------------------------|------------------------------|
|
|----------------------------------------|------------------------------|
|----------------------------------------|------------------------------|
|------------9-----8----7----------------|-------9----8--------7------6-|
|----------------------------------------|------------------------------|
|--7------------6----5----4--------------|---7-----6------5-------4-----|
|-------------------------------------0--|------------------------------|
|
|------------------7---------------------|------------7---7-------------|
|------------------8---------------------|------------8---8-------------|
|------------------7---------------------|------------7---7-------------|
|----------------------------------------|------------------------------|
|----------------------------------------|------------------------------|
|-------------------------------------0--|----------------------------0-|


                                                 ~
|--------------------------|--------------------------|
|-12----10-----------------|--------------------------|
|-------------10s9----7----|--------------------------|
|--------------------------|-9----7-------------------|
|--------------------------|-----------8s7----5-------|
|--------------------------|---------------------7----|
|
|--------------------------|--------------------------|
|-----------0--------------|--------------------------|
|-----9-------------7----6-|----9----8------7---------|
|--------------------------|--------------------------|
|--7-----6-------5----4----|-7----6------5----4--2----|
|--------------------------|--------------------------|
|
|----------------7--7------|---------7------7---------|
|----------------8--8------|---------8------8---------|
|----------------7--7------|---------7------7---------|
|--------------------------|--------------------------|
|--------------------------|--------------------------|
|------------------------0-|---------------------7----|


   ~~~
|---------------------------|-----------------------------7-|
|---------------------------|---------------------------7---|
|---------------------------|-7-7--------------9b11-(9)-----|
|------------7------9-7-----|-------9----(9)----------------|
|-------7h=9----(7)-----9---|-------------------------------|
|-(7)-----------------------|-------------------------------|
|
|---------------------------|-------------------------------|
|---------------------------|-------------------------------|
|---------------------------|-------------------------------|
|---------------------------|-------------------------------|
|--2----5----4---4--3-----2-|-----2-5-----4----------3----2-|
|---------------------------|-------------------------------|
|
|---------------------------|-------------------------------|
|----------7----------------|----------7--------------------|
|----------7----------------|----------7--------------------|
|---------------------------|-------------------------------|
|---------------------------|-------------------------------|
|-------------------------7-|-----------------------------7-|


                                                      ~~~~~~~~~~~~~~~
|----------------------10---12---|-12pb14r(12)----------------------------14b17----|
|-10--10s12---12---12------------|---------------12-(12)-(12)---(12)---------------|
|--------------------------------|-------------------------------------------------|
|--------------------------------|-------------------------------------------------|
|--------------------------------|-------------------------------------------------|
|--------------------------------|-------------------------------------------------|
|
|--------------------------------|-------------------------------------------------|
|--------------------------------|-------------------------------------------------|
|--------------------------------|-------------------------------------------------|
|--------------------------------|-------------------------------------------------|
|---------2-5-------4-----3----2-|-------------2--5---------------4----3-----------|
|--------------------------------|-------------------------------------------------|
|
|-----------9--------------------|-------------------------------------------------|
|-----------9----7---------------|----------------------------7--------------------|
|----------------7---------------|----------------------------7--------------------|
|--------------------------------|-------------------------------------------------|
|--------------------------------|-------------------------------------------------|
|------------------------------7-|-----------------------------------------7-------|


                                                ~~~~~~~~
|-(14)\--------14--12--------|----------------------------|
|-----------------------15---|-12-------------------------|
|----------------------------|-----14--11s9--9s11--(11)---|
|----------------------------|----------------------------|
|----------------------------|----------------------------|
|----------------------------|----------------------------|
|
|----------------------------|----------------------------|
|----------------------------|----------------------------|
|----------------------------|----------------------------|
|---------4--x--3-----2------|----------4----3-------2----|
|----------------------------|----------------------------|
|---2----------------------x-|--2-------------------------|
|
|----------------------------|----------------------------|
|------------2---------------|---------------2------------|
|------------2---------------|---------------2------------|
|----------------------------|----------------------------|
|----------------------------|----------------------------|
|--------------------------2-|----------------------------|


|------------------------------|--------------------|
|-10b12==(10)r=10-10---8---7---|--------------------|
|------------------------------|-9---7---6----------|
|------------------------------|-------------10--9--|
|------------------------------|--------------------|
|------------------------------|--------------------|
|
|------------------------------|--------------------|
|------------------------------|--------------------|
|----------4-------2---0-------|--------------------|
|--------------------------4---|-2---0--------------|
|------------------------------|---------4----3-----|
|------------------------------|--------------------|
|
|------------------------------|--------------------|
|------------------------------|--------------------|
|----------4-------2---0-------|--------------------|
|--------------------------4---|-2---0--------------|
|------------------------------|---------4----3-----|
|------------------------------|--------------------|


|---------------------|-----------------------|
|----------7----------|----------9------------|
|----------7----------|----------9------------|
|-(9)---------------9-|-(9)-----------------9-|
|---------------------|-----------------------|
|---------------------|-----------------------|
|
|---------------------|-----------------------|
|---------------------|-----------------------|
|---------------------|-----------------------|
|---------------------|-----------------------|
|--2----5----4---3--2-|-(2)---5-----4----3--2-|
|---------------------|-----------------------|
|
|------------2--------|----------2-(2)--------|
|------------3--------|----------3p=2---------|
|---------------------|-----------------------|
|---------------------|-----------------------|
|--2----------------2-|-(2)-----------------2-|
|---------------------|-----------------------|

[ Tab from: http://www.guitartabs.cc/tabs/p/pink_floyd/money_tab_ver_5.html ]
                              Gtr V
|-----------------------------|----------------------------||
|----------/10------10---10---|-10-------------------------||
|----------/11------11---11---|-11----9b11----(9)---(9)----||
|-(9)-------------------------|----------------------------||
|-----------------------------|----------------------------||
|-----------------------------|----------------------------||
|
|-----------------------------|----------------------------||
|-----------------------------|----------------------------||
|-----------------------------|----------------------------||
|-----------------------------|----------------------------||
|-(2)---5-------4------3----2-|-(2)---5--------4-----3-----||
|-----------------------------|----------------------------||
|
|------------2-(2)------------|-------------2-(2)----------||
|------------3p=2-------------|-------------3p=2-----------||
|-----------------------------|----------------------------||
|-----------------------------|----------------------------||
|-(2)-----------------------2-|-(2)------------------------||
|-----------------------------|----------------------------||


 Breakdown
  Gtr V
|-7---------------7-|-----------------------|
|-7---------------7-|-------------12---12---|
|-------------------|-----------------------|
|-------------------|-----------------------|
|-------------------|-----------------------|
|-------------------|-----------------------|
|
| Gtrs I, VI
| PM-----------------------------------------
|-------------------|-----------------------|
|-------------------|-----------------------|
|-------------------|-----------------------|
|-------------------|-----------------------|
|-2---5--0-4---3--1s|=2--2-5---4-----3----1s|
|-------------------|-----------------------|


   ~~                                      ~~~
|-----10---------------|---------------------------------|
|-12-----------------7-|---------------------------------|
|--------------------7-|-------------9b11-(9)------------|
|----------------------|-(9)-----------------------------|
|----------------------|---------------------------------|
|----------------------|---------------------------------|
|
|---------------------------------------------------|
|----------------------|---------------------------------|
|----------------------|---------------------------------|
|----------------------|---------------------------------|
|----------------------|---------------------------------|
|--2-----5--0-4---3--1s|==2---2-5--2-------4---2-3--1s===|
|----------------------|---------------------------------|


|---------------------|---------------------|
|---------------------|----7-----(7)--------|
|-7-9-----------------|----7-----(7)--------|
|-----9-9-------------|----7-----(7)--------|
|---------------------|---------------------|
|---------------------|---------------------|
|
| PM-----------------------------------------
|---------------------|---------------------|
|---------------------|---------------------|
|---------------------|---------------------|
|---------------------|---------------------|
|-2-----5--2-4---3--1s|=2--2-5----4----3--1s|
|---------------------|---------------------|


|-----------------------|-----------------------------|
|---------------x-------|---------------------7-------|
|---------------x--9b11-|-(9)\----x-----------9b11----|
|-7h9-------------------|---------x-------------------|
|-----------------------|-----------------------------|
|-----------------------|-----------------------------|
|
|------------------------------------------|
|-----------------------|-----------------------------|
|-----------------------|-----------------------------|
|-----------------------|-----------------------------|
|-----------------------|-----------------------------|
|-2----5--2-4---3--1s===|==2----2-5--2-4---3----------|
|-----------------------|-----------------------------|


             ~~~
|----------------------------|--------------------------------|
|-(7)--7----(7)---(7)--------|--------------------------------|
|-(9)--9b11-(9)---(9)--------|---------------9b11==(9)r(9)p7--|
|----------------------------|--------------------------------|
|----------------------------|--------------------------------|
|----------------------------|--------------------------------|
|
|  PM----------------------------------------------------------
|----------------------------|--------------------------------|
|----------------------------|--------------------------------|
|----------------------------|--------------------------------|
|----------------------------|--------------------------------|
|--7---------6-----5----4--4s|=7--7-6-6-6-5--5------4------x--|
|----------------------------|--------------------------------|


                       ~~~~~~~~~~
|------------------------------------------|-------------------------------------------|
|------------------------------------------|-------------------------------------------|
|-9b12-(9)--9b11==(9)-(9)---(9)r=9-0--7b9==|=(7)r=7-(7)--(7)b9==(7)r(7)b8==(7)-(7)r=7--|
|------------------------------------------|-------------------------------------------|
|------------------------------------------|-------------------------------------------|
|------------------------------------------|-------------------------------------------|
|
|-----------------------------------------------------------------------------------|
|------------------------------------------|-------------------------------------------|
|------------------------------------------|-------------------------------------------|
|------------------------------------------|-------------------------------------------|
|------------------------------------------|-------------------------------------------|
|-------7--------------6-----5-----4-------|--7------6-----------5--------------4---1s=|
|------------------------------------------|-------------------------------------------|


  ~~~~~~~~
|-----------------------10-|------------------10---|
|----------------10s12-----|---------------10------|
|--------------------------|-----------------------|
|-9---(9)------------------|-----------------------|
|--------------------------|-----------------------|
|--------------------------|-----------------------|
|
| PM--------------------|      PM-------------------
|--------------------------|-----------------------|
|--------------------------|-----------------------|
|--------------------------|-----------------------|
|--------------------------|-----------------------|
|-2----5---2-4-------3---2-|---2-5--2-4--2--3----1-|
|--------------------------|-----------------------|


|-12pb14--12b14==(12)-(12)----(12)----(12)r(12)---|-12p10----------------------|
|-------------------------------------------------|-------------------10-10----|
|-------------------------------------------------|-------------(0)------------|
|-------------------------------------------------|----------------------------|
|-------------------------------------------------|----------------------------|
|-------------------------------------------------|----------------------------|
|
|---------------------------------------------------------------------------|
|-------------------------------------------------|----------------------------|
|-------------------------------------------------|----------------------------|
|-------------------------------------------------|----------------------------|
|-------------------------------------------------|----------------------------|
|--2---------------2----5---2---4---2---3-------1s|==2----2-5----4-----3----2--|
|-------------------------------------------------|----------------------------|


              ~~~~~~~~~
|---------------------------------------|
|-10---------------------(0)--7---------|
|-----8s9s10s11---(11)--------9b11==(9)-|
|---------------------------------------|
|---------------------------------------|
|---------------------------------------|
|
|---------------------------------------|
|---------------------------------------|
|---------------------------------------|
|-------------4-----3-----2-------------|
|---------------------------------------|
|--2------------------------------------|
|
| Gtr III
|---------------------------------------|
|---------------------------------------|
|---------------------------------------|
|---------------------------------------|
|---------------------------------------|
|---------------------------------------|


                                          ~
|---------------------------------------|------------------|-------------------|
|---------------------------------------|------------------|-------------------|
|-(9)r(9)b11==(9)-(9)---(9)r=(9)-(9)\---|-4---2---0--------|-------------------|
|---------------------------------------|-------------4--0-|-2---0-------------|
|---------------------------------------|------------------|---------4--0-3--2-|
|---------------------------------------|------------------|-------------------|
|
|---------------------------------------|------------------|-------------------|
|---------------------------------------|------------------|-------------------|
|---------------------------------------|-4---2p==0--------|-------------------|
|------------------4-----3--------2-----|-------------4p=0-|-2---0-------------|
|---------------------------------------|------------------|---------4--0-3--2-|
|--2------------------------------------|------------------|-------------------|
|
|---------------------------------------|------------------|-------------------|
|---------------------------------------|------------------|-------------------|
|---------------------------------------|------------------|-------------------|
|---------------------------------------|-4---2---0--------|-------------------|
|---------------------------------------|-------------4----|-2---0-------------|
|---------------------------------------|------------------|---------4----3----|


  Gtr II
|--------------------------|-------------------------|
|----------7-(7)--(7)------|----------9-(9)--(9)-----|
|----------7-(7)--(7)------|----------9-(9)--(9)-----|
|-------9----------------9-|-(9)---9---------------9-|
|-(2)----------------------|-------------------------|
|--------------------------|-------------------------|
|
| Gtr III
|--------------------------|-------------------------|
|----------7---------------|----------9--------------|
|----------7----------x----|----------9--------------|
|-------9----------------9-|-(9)---9---------------9-|
|--------------------------|-------------------------|
|--7-----------------------|-------------------------|


  B5
   |
   /

          Gtr IV
|-----------------------------|---------------14------------------------------||
|-----------------------------|-15---17-(17)-----17b19==(17)---(17)-(17)r17---||
|-----------------14-----16---|-----------------------------------------------||
|-(9)---9--14s16--------------|-----------------------------------------------||
|-----------------------------|-----------------------------------------------||
|-----------------------------|-----------------------------------------------||
|
|-----------------------------|----------------9------------------------------||
|-----------7--------(7)--7---|---------------10------------------------------||
|-----------7--------(7)--7---|----------------9------------------------------||
|-(9)---9-------------------9-|-(9)------------9--------------------------9---||
|-----------------------------|-----------------------------------------------||
|-----------------------------|-----------------------------------------------||


 2nd Guitar Solo
  Gtr IV
          ~~~~~~~~~~~~~~~~~~
|-----------------------------|-------19-22b24==(22)----(22)r=(22)-22-22---|
|-15--17----------------------|---^19--------------------------------------|
|--------16----(16)---(16)\---|--------------------------------------------|
|-----------------------------|--------------------------------------------|
|-----------------------------|--------------------------------------------|
|-----------------------------|--------------------------------------------|
|
| Gtr III
|---------7--7----------------|--------------------------------------------|
|---------7--7----------7-----|-------------------7---7-------------9------|
|---------7--7----------7-----|-------------------7---7-------------9------|
|--9--------------------------|--------------------------------------------|
|-----------------------------|--------------------------------------------|
|-----------------------------|--------------------------------------------|


               ~~~~~~~~~~~
|-22------------------------19-(19)\--|----------------------------------------------|
|-----22b24==(22)r===(22)---19-(19)\--|-----------15---17b19-(17)--15b17==(15)r=15---|
|---------------------------19-(19)\--|---14s16--------------------------------------|
|-------------------------------------|----------------------------------------------|
|-------------------------------------|----------------------------------------------|
|-------------------------------------|----------------------------------------------|
|
|-------------------------------------|----------------------------------------------|
|--------------7---7---------9--------|---------7----7----------------------9--------|
|--------------7---7---------9--------|---------7----7----------------------9--------|
|-------------------------------------|----------------------------------------------|
|-------------------------------------|----------------------------------------------|
|-------------------------------------|----------------------------------------------|


   ~~~~~~~~~~~~~~
|----------------------------|-----------------------------|
|---------------------17b20==|=(17)---(17)r===17--17---15--|
|-16--------(16)-------------|-----------------------------|
|----------------------------|-----------------------------|
|----------------------------|-----------------------------|
|----------------------------|-----------------------------|
|
|----------------------------|-----------------------------|
|------7--7--------9---------|----------7---7--------9-----|
|------7--7--------9---------|----------7---7--------9-----|
|----------------------------|-----------------------------|
|----------------------------|-----------------------------|
|----------------------------|-----------------------------|


   ~~~~~~~~~                         ~~
|------------------------------|------------------------------|
|------------------------------|-------------------------15---|
|-16---(16)--------------------|----------------^14s16--------|
|--------------14--12-(12)-14--|-14s16------------------------|
|------------------------------|------------------------------|
|------------------------------|------------------------------|
|
|------------------------------|------------------------------|
|--------7---7----------9------|---------7--7----------9------|
|--------7---7----------9------|---------7--7----------9------|
|------------------------------|------------------------------|
|------------------------------|------------------------------|
|------------------------------|------------------------------|


   ~~
|---------------------|-22b24==(22)---------(22)r---22-22---|
|------------------19-|-------------------------------------|
|-16------------------|-------------------------------------|
|---------------------|-------------------------------------|
|---------------------|-------------------------------------|
|---------------------|-------------------------------------|
|
|------7--7-----9-----|----------------7--7----------9------|
|------8--8----10-----|----------------8--8---------10------|
|------7--7-----9-----|--------------7-7--7----------9------|
|---------------------|-------------------------------------|
|---------------------|-------------------------------------|
|---------------------|-------------------------------------|


               ~~~~~~~~~~~                                                                  ~~
|-22--19--------------------------------------|-----------------------------------------------|
|-----22b24==(22)----(22)---(22)r-22b25==(22)-|-(22)r=22-22b24===(22)-(22)r=22----------------|
|---------------------------------------------|--------------------------------21b23-(21)--19-|
|---------------------------------------------|-----------------------------------------------|
|---------------------------------------------|-----------------------------------------------|
|---------------------------------------------|-----------------------------------------------|
|
|--------------7---7----------9---------------|-----------7--------7-------------------9\-----|
|--------------8---8---------10---------------|-----------8--------8------------------10\-----|
|--------------7---7----------9---------------|-----------7--------7-------------------9\-----|
|---------------------------------------------|-----------------------------------------------|
|---------------------------------------------|-----------------------------------------------|
|---------------------------------------------|-----------------------------------------------|


    ~~~~~~~~~~~~~~~
|--------------------------------|--------------------------------------------|
|--------------------------19----|-(19)----19--19---22b24-(22)----22b24==(22)-|
|-(19)--------(19)----21---21b23-|-(21)---------------------------------------|
|--------------------------------|--------------------------------------------|
|--------------------------------|--------------------------------------------|
|--------------------------------|--------------------------------------------|
|
|--------7-----------------------|----------7---------------------------------|
|--------7--7-------x--9\--------|-------x--7---7-----------x--9\-------------|
|--------7--7-------x--9\--------|-------x--7---7--------------9\-------------|
|--------------------------------|--------------------------------------------|
|--------------------------------|--------------------------------------------|
|--------------------------------|--------------------------------------------|


                        ~~~~~~~~
|---------22----------------------------|------22b24==(22)----(22)r=(22)-22-22------|
|-(22)---(22)r--22b24-(22)-(22)---------|---19--------------------------------------|
|---------------------------------------|-------------------------------------------|
|---------------------------------------|-------------------------------------------|
|---------------------------------------|-------------------------------------------|
|---------------------------------------|-------------------------------------------|
|
|---------------------------------------|-------------------------------------------|
|----------7------------7--------7-9\---|---------------7---7-------------9---------|
|----------7------------7--------7-9\---|----x----------7---7---------x---9---------|
|---------------------------------------|-------------------------------------------|
|---------------------------------------|-------------------------------------------|
|---------------------------------------|-------------------------------------------|


                                             ~~~~~
|-22-----------------------------------------------|
|-----22b24-(22)----19----22-----------------------|
|----------------------------21b23-(21)-----19-----|
|--------------------------------------------------|
|--------------------------------------------------|
|--------------------------------------------------|
|
|                                        ~~~~~~~~
|-----------------9-----9--------------------------|
|----------------10----10---------------12-(12)\---|
|----------------11----11---------------13-(13)\---|
|--------------------------------------------------|
|--------------------------------------------------|
|--------------------------------------------------|


                    ~~~~
|--------------------------------|-------------------------------|
|--------------------------------|-10b12==(10)r==10---8---7--(5)-|
|--------------------------x-0---|-------------------------------|
|-21p19----19--------------------|-------------------------------|
|-------21-----21-(21)-----------|-------------------------------|
|--------------------------------|-------------------------------|
|
|-----------9---9----------------|-------------------------------|
|----------10--10-------12-0-----|-------------------------------|
|----------11--11------------0-0-|----------4-----2---0----------|
|--------------------------------|------------------------4------|
|--------------------------------|-------------------------------|
|--------------------------------|-------------------------------|


                  Q=125(8=s8)
                    B5
                   7/4
  Gtr II
                    |                      |
                    /                      /

  Gtr IV
|-----------------|----------------------|-------------------||
|-5---------------|----------------------|-------------------||
|-----7---6---5---|-4----(4)-------------|-------------------||
|-----------------|----------------------|-------------------||
|-----------------|----------------------|-------------------||
|-----------------|----------------------|-------------------||
|
| Gtr III
|-----------------|------------7----7----|-------------------||
|-----------------|----7--7----7----7----|---7-7---7----7----||
|-----------------|----7--7---------7----|---7-7---7---------||
|-2---0-----------|----------------------|-------------------||
|---------4---3---|----------------------|-------------------||
|-----------------|----------------------|-------------------||


 Verse 3
  B5
  Gtr II
  |                                                  |
  /                                                  /

  Gtrs I, VI
|---------------------------|---------------------------|
|---------------------------|---------------------------|
|----4----------------------|----4----------------------|
|------4--------------------|------4--------------------|
|-2------2------------2--5--|-2------2------------2--5--|
|-----------2--5b5.5--------|-----------2--5b5.5--------|
|
| Gtr III
|---------------------------|---------------------------|
|----7-7----7---------------|----7-7----7---------------|
|----7-7----7---------------|----7-7----7---------------|
|---------------------------|---------------------------|
|---------------------------|---------------------------|
|---------------------------|---------------------------|


  |
  /

|-------------------------------|------------------------------|
|-------------------------------|------------------------------|
|-------------------------------|----4-(4)---------------------|
|-------------------------------|-------4----------------------|
|-2------5--2------------2-0-5--|-2--------2-x-------2--0-5----|
|------------------2--5---------|--------------2--5------------|
|
|-------------------------------|--------------7---------------|
|-7b7.5-----7b7.5---------------|----7--7------7-----7---------|
|-7b7.5-----7b7.5---------------|----7--7------7-----7---------|
|-------------------------------|------------------------------|
|-------------------------------|------------------------------|
|-------------------------------|------------------------------|


  B5
  |                                                  |
  /                                                  /

|---------------------------|---------------------------|
|---------------------------|---------------------------|
|----4----------------------|----4----------------------|
|------4--------------------|------4--------------------|
|-2------2------------2--5--|-2------2------------2--5--|
|-----------2--5b5.5--------|-----------2--5b5.5--------|
|
|---------------------------|---------------------------|
|----7-7----7---------7-----|----7-7----7---------7-----|
|----7-7----7---------7-----|----7-7----7---------7-----|
|---------------------------|---------------------------|
|---------------------------|---------------------------|
|---------------------------|---------------------------|


  |
  /

|-------------------------------|---------------------------------|
|-------------------------------|---------------------------------|
|-------------------------------|----4-(4)------------------------|
|-------------------------------|-------4-------------------------|
|-2------5--2------------2-0-5--|-2-----------2-x-------2--0-5----|
|------------------2--5---------|-----------------2--5------------|
|
|-------------------------------|---------------------------------|
|-7b7.5-----7b7.5---------------|----7--7b7.5-----7-----7---------|
|-7b7.5-----7b7.5---------------|----7--7b7.5-----7-----7---------|
|-------------------------------|---------------------------------|
|-------------------------------|---------------------------------|
|-------------------------------|---------------------------------|


                                                   Q.
  F#m                    Em
  |                      |
  /                      /

|----------------------|---------------------------||
|----------------------|---------------------------||
|----------------------|---------------------------||
|-4----4------------4--|-3--2-x--------------------||
|--------4-------4-----|------------------0--2--5--||
|----------2--5--------|--------0b0.5--3-----------||
|
|----------------------|---------------------------||
|----------------------|---------------------------||
|----------------------|---------------------------||
|----------------------|---------------------------||
|----------------------|---------------------------||
|----------------------|---------------------------||


 Outro
 =132(8=s8)
  B5
 12/8
  |
  /

|--------------------|------------------------|
|--------------------|------------------------|
|--------------------|------------------------|
|--------------------|------------------------|
|-2--------(2)---5---|-2--------(2)---5--(0)--|
|--------------------|------------------------|
|
|--------------------|------------------------|
|-----7--7-------9---|-----7--7-------9-------|
|-----7--7-------9---|-----7--7-------9-------|
|--------------------|------------------------|
|--------------------|------------------------|
|--------------------|------------------------|


|-----------------------|-----------------------|
|-----------------------|-----------------------|
|-----------------------|-----------------------|
|-----------------------|-----------------------|
|-2--------(2)---5--(0)-|-2--------(2)---5--(0)-|
|-----------------------|-----------------------|
|
|-----------------------|-----------------------|
|-----7--7-------9------|-----7--7-------9------|
|-----7--7-------9------|-----7--7-------9------|
|-----------------------|-----------------------|
|-----------------------|-----------------------|
|-----------------------|-----------------------|


|-----------------------|--------------------------|
|-----------------------|--------------------------|
|-----------------------|--------------------------|
|-----------------------|--------------------------|
|-2--------(2)---5--(0)-|-2--------(2)---5--(0)----|
|-----------------------|--------------------------|
|
|-----------------------|--------------------------|
|-----7--7-------9------|-----7--7-------9---------|
|-----7--7-------9------|-----7--7-------9---------|
|-----------------------|--------------------------|
|-----------------------|--------------------------|
|-----------------------|--------------------------|


|-----------------------|-----------------------|
|-----------------------|-----------------------|
|-----------------------|-----------------------|
|-----------------------|-----------------------|
|-2--------(2)---5--(0)-|-2--------(2)---5--(0)-|
|-----------------------|-----------------------|
|
|-----------------------|-----------------------|
|-----7--7-------9------|-----7--7-------9------|
|-----7--7-------9------|-----7--7-------9------|
|-----------------------|-----------------------|
|-----------------------|-----------------------|
|-----------------------|-----------------------|


|-----------------------|--------------------------|
|-----------------------|--------------------------|
|-----------------------|--------------------------|
|-----------------------|--------------------------|
|-2--------(2)---5--(0)-|-2--------(2)---5--(0)----|
|-----------------------|--------------------------|
|
|-----------------------|--------------------------|
|-----7--7-------9------|-----7--7-------9---------|
|-----7--7-------9------|-----7--7-------9---------|
|-----------------------|--------------------------|
|-----------------------|--------------------------|
|-----------------------|--------------------------|


|-----------------------|-----------------------|
|-----------------------|-----------------------|
|-----------------------|-----------------------|
|-----------------------|-----------------------|
|-2--------(2)---5--(0)-|-2--------(2)---5--(0)-|
|-----------------------|-----------------------|
|
|-----------------------|-----------------------|
|-----7--7-------9------|-----7--7-------9------|
|-----7--7-------9------|-----7--7-------9------|
|-----------------------|-----------------------|
|-----------------------|-----------------------|
|-----------------------|-----------------------|


                          Out - Solo
|-----------------------||----------------------------------|
|-----------------------||----------------------------------|
|-----------------------||----------------------------------|
|-----------------------||----------------------------------|
|-2--------(2)---5--(0)-||-2------(2)------------5----(0)---|
|-----------------------||----------------------------------|
|
|                       Gtr V
|-----------------------||----------------------------------|
|-----7--7-------9------||----------------------------------|
|-----7--7-------9------||-------------9b11-(9)-(9)-7-------|
|-----------------------||----------------------------------|
|-----------------------||----------------------------------|
|-----------------------||----------------------------------|


  Gtr V
|---------------------------7--|
|----------10b12==(10)-(10)----|
|------------------------------|
|------------------------------|
|-9----------------------------|
|------------------------------|


   ~~~
|-------------------------|----------------12b14--(12)--|
|-10r---------------------|-------------10--------------|
|------------9b11-(9)--7--|-----------------------------|
|-------------------------|-9---(9)---------------------|
|-------------------------|-----------------------------|
|-------------------------|-----------------------------|


    ~~~~
|-(12)------------------------|------------------------|---------------------|
|-------------12b15-(12)--10--|-12---------------------|---------------------|
|-----------------------------|-----------9b11-(9)--7--|--------------7------|
|-----------------------------|------------------------|-9---(9)------9p7----|
|-----------------------------|------------------------|------------------9--|
|-----------------------------|------------------------|---------------------|


|----------------------7-|--------------------------------------------------------|
|-7------------------7---|-10--10b12==(10)r10-10b14==(10)-(10)r=10-10b12==(10)-10-|
|-7---------9b11-(9)-----|--------------------------------------------------------|
|------------------------|--------------------------------------------------------|
|----9-------------------|--------------------------------------------------------|
|------------------------|--------------------------------------------------------|


    ~~~~~~~~~~~
|----------------------------|
|-(10)---(10)r------10-10----|
|----------------------------|
|----------------------------|
|----------------------------|
|----------------------------|


            ~~~
|----------------------|--------------------------------|-------------------*|
|-10-------------------|--------------------------------|-------------------*|
|-----9b11-(9)---------|-9-9-9b11==(9)--9--9--9r(9)-(9)-|-(9)pb11r=9--------*|
|----------------------|--------------------------------|-------------------*|
|----------------------|--------------------------------|-------------------*|
|----------------------|--------------------------------|-------------------*|


Tablature Legend
----------------
 h   - hammer-on
 p   - pull-off
 b   - bend
 pb  - pre-bend
 r   - bend release (if no number after the r, then release immediately)
 /\  - slide into or out of (from/to "nowhere")
 s   - legato slide
 S   - shift slide
  - natural harmonic
[n]  - artificial harmonic
n(n) - tapped harmonic
 ~   - vibrato
 tr  - trill
 T   - tap
 TP  - trem. picking
 PM  - palm muting
\n/  - tremolo bar dip; n = amount to dip
 \n  - tremolo bar down
 n/  - tremolo bar up
/n\  - tremolo bar inverted dip
 =   - hold bend; also acts as connecting device for hammers/pulls
 <>  - volume swell (louder/softer)
 x   - on rhythm slash represents muted slash
 o   - on rhythm slash represents single note slash

Misc Legend
-----------
 |  - bar
||  - double bar
||o - repeat start
o|| - repeat end
*|  - double bar (ending)
 :  - bar (freetime)
 $  - Segno
 &  - Coda
Tempo markers -  = BPM(8/16=s8/s16), where s8 = swing 8ths, s16 = swing 16ths


***************************************************************************************
* Generated using Power Tab Editor by Brad Larsen - http://powertab.guitarnetwork.org *
***************************************************************************************
Comments