Pink Floyd - Money Chords & Tabs

 

Money Chords & Tabs

Pink Floyd Chords & Tabs

Version: 4 Type: Tab 0 ratings
1 star 2 stars 3 stars 4 stars 5 stars
comments

Money Tab

                             FIRST SOLO OF 'MONEY'

                                 BY PINK FLOYD

                      FROM THE ALBUM 'THE DARK SIDE OF THE MOON'

This is the first solo of Money. I'll post the rest of it
when i get a chance. See i actually will, not like other people
who say they will and never get around to it. Honestly. Look
i'm just a busy person, okay? I can't help it.Please stop sending
threatning emails, i have nothing to do with the Taliban.
Enjoy.


S=SLIDE
BU=BEND UP
RB=RELEASE BEND

SOLO STARTS WITH THIS RIFF
---------------------------------------------------------------------------|
---------------------------------------------------------------------------|
---4-----------------------------------------------------------------------|
---4-X-8-------------------------------------------------------------------|
---2-----------------------------------------------------------------------|
---------------------------------------------------------------------------|

THEN


------------------------------------------------------------10-------------|
----------------10--(12 BU)----7-10---------------(11 S)-12----12-12-------|
---9-(11 BU)--7---------------------9-(11 BU)-7----------------------------|
---------------------------------------------------------------------------|
---------------------------------------------------------------------------|
---------------------------------------------------------------------------|


---------12-(14 BU)-(15 RB)----------------------------------7--------------|
--12-12--------------------12-12----------------------------7-----10-(10----| S)
----------------------------------9-(11 BU)-7--9----9-(11 BU)---------------|
------------------------------------------------9---------------------------|
----------------------------------------------------------------------------|
----------------------------------------------------------------------------|

[ Tab from: http://www.guitartabs.cc/tabs/p/pink_floyd/money_tab_ver_4.html ]
----10--12-12--(14-BU)-------10--12--(14-BU)---10-12-----------------------|
12--------------------12-12---------------------------12-10----------------|
-------------------------------------------------------------(10-S)-9--7---|
---------------------------------------------------------------------------|
---------------------------------------------------------------------------|
---------------------------------------------------------------------------|


---------------------------------------------------------------7-----------|
------------------------------------------------------------7-----10-------|
---------------------------------------7--7--------------------------------|
--9-7----------------------7--9--7-----------9----9--(11 BU)---------------|
------(8 S)-7--5-----7--9----------9---------------------------------------|
------------------7--------------------------------------------------------|


---------------------10--12---12---(14 BU)-(12 RB)-----------14--(17 BU)---|
----(10-S)-12--12------------------------------------12--12----------------|
---------------------------------------------------------------------------|
---------------------------------------------------------------------------|
---------------------------------------------------------------------------|
---------------------------------------------------------------------------|


---14--12------------------------------------------------------------------|
------------15--12------------------------------10--(12 BU)--10--8--7------|
--------------------14----(11 S)-9--(9 S)--11------------------------------|
---------------------------------------------------------------------------|
---------------------------------------------------------------------------|
---------------------------------------------------------------------------|


---------------------------------------------(S)---------------------7-----|
-------------------------7--------9------(10-10-10-10)---------------------|
-----9--7--6-------------7--------9------(11-11-11-11)----9-(11 BU)--------|
---------------10--9----------9------9-------------------------------------|
---------------------------------------------------------------------------|
---------------------------------------------------------------------------|
This is where the second guitar starts with that fuzzy solo.

by Smacky
Comments