Pink Floyd - Money Chords & Tabs

 

Money Chords & Tabs

Pink Floyd Chords & Tabs

Version: 1 Type: Bass Tab 12 ratings
1 star 2 stars 3 stars 4 stars 5 stars
comments

Money Bass Tab

MONEY
Pink Floyd

Tabbed by: Jason C. Cawley  [jcawley@crosswinds.net]


[7/4 time.]

Intro:
+---4------------+
|----4---------0-|  x 8
|-2----2---0-2---|
+--------2-------+

Verse:
+---4------------+---4------------+---------------+---4------------+
|----4---------0-|----4---------0-|---0---------0-|----4---------0-|  x 2
|-2----2---0-2---|-2----2---0-2---|-2---2---0-2---|-2----2---0-2---|
+--------2-------+--------2-------+-------2-------|--------2-------+

+----------------+----------------+
|-4---4--------4-|-3-2----------0-|
|-------4--0-4---|-----2----0-2---|
+--------2-------+------0-3-------+

+---4------------+
|----4---------0-|  x 2
|-2----2---0-2---|
+--------2-------+

[Verse]

Saxophone Solo:
+---4------------+        +---9------------+
|----4---------0-|  x 8   |----9---------5-|  x 4
|-2----2---0-2---|        |-7----7---5-7---|
+--------2-------+        +--------7-------+

+---4------------+
|----4---------0-|  x 4
|-2----2---0-2---|
+--------2-------+
[ Tab from: http://www.guitartabs.cc/tabs/p/pink_floyd/money_btab.html ]
+----------------+----------------+     +-------------+
|-4---4--------4-|-3-2----------0-|     |-------------|  x 4
|-------4--0-4---|-----2----0-2---|     |-2-2-2-2-2-2-|
+--------2-------+------0-3-------+     +-------------+

[Switch to 4/4 time.]

Guitar Solo Section 1:
+---------+        +---------+         +---------+
|---------|  x 8   |---------|  x 4    |---------|  x 4
|-2-5-4-3-|        |-7-6-5-4-|         |-2-5-4-3-|
+---------+        +---------+         +---------+

+---------+        +-4-2-----+---------+
|---4-3-2-|  x 2   |-----5-4-|-2-------|
|---------|        |---------|---5-4-3-|
+-2-------|        +---------+---------+

Guitar Solo Section 2:
+---------+        +---------+         +---------+
|---------|  x 12  |---------|  x 4    |---------|  x 4
|-2-5-4-3-|        |-7-6-5-4-|         |-2-5-4-3-|
+---------+        +---------+         +---------+

+---------+        +-4-2-----+---------+
|---4-3-2-|  x 2   |-----5-4-|-2-------|
|---------|        |---------|---5-4-3-|
+-2-------|        +---------+---------+

[Guitar Solo Section 2]

[Switch to 7/4 time.]

+---4------------+
|----4---------0-|  x 2
|-2----2---0-2---|
+--------2-------+

[Verse]

Ending
+-------------+
|---0---0---0-|  ...until end.
|-2---2---2---|
+-------------+

Comments