Pink Floyd - Marooned Chords & Tabs

 

Marooned Chords & Tabs

Pink Floyd Chords & Tabs

Version: 1 Type: Bass Tab 0 ratings
1 star 2 stars 3 stars 4 stars 5 stars
comments

Marooned Bass Tab

   
-------------------------------------------------------------------------------
			     Marooned - Pink Floyd
-------------------------------------------------------------------------------

Tabbed By : badanima
e-mail: aminadabjeff@yahoo.com

Tuning:normal, EADG

G|---------------------------------------------------------------------------|
D|---------------------------------------------------------------------------|
A|-2------------------------2-------------------------0-2-------0------------|
E|---------3--------1---------------3-------1---------------------3----------|
[ Tab from: http://www.guitartabs.cc/tabs/p/pink_floyd/marooned_btab.html ]
G|---------------------------------------------------------------------------|
D|---------------------------------------------------------------------------|
A|---------------2------2-2-0------------------------------------------------|
E|1--3--0-----2---------------3------3--2--0---------------------------------|
   
G|---------------------------------------------------------------------------|
D|---------------------------------------------------------------------------|
A|---------------------------------------------------------------------------|
E|---2--0--0-0----0--0-0----2--2-2----2--2-2----0--0-0----0--0-0-------------|

That's it, a pretty easy song.


| /  slide up
| \  slide down
| h  hammer-on
| p  pull-off
| ~  vibrato
| +  harmonic
| x  Mute note
===============================================================================
Comments