Pink Floyd - Is There Anybody Out There Chords & Tabs

 

Is There Anybody Out There Chords & Tabs

Pink Floyd Chords & Tabs

Version: 6 Type: Tab 0 ratings
1 star 2 stars 3 stars 4 stars 5 stars
comments

Is There Anybody Out There Tab

Is There Anybody Out There? - Pink Floyd
Tabbed by LithiumGod [LithiumGod_uk@yahoo.co.uk]

To be played finger style (pima)


Bass Opening

G|----------2-----------2--------|
D|-------------------------------|  [8 times]
A|----0-----------0--------------|
E|-------------------------------|

Main Theme (I)


    p   i   m   a   m   i   p   i     p   i   m   a   m   i   p   i 
e|--------------0------------------|--------------0------------------|
B|----------1-------1--------------|----------1-------1--------------|
G|------2---------------2-------2--|------2---------------2-------2--|
D|--2-----------------------2------|--3-----------------------3------|
A|---------------------------------|---------------------------------|
E|---------------------------------|---------------------------------|
    1   +   2   +   3   +   4   +     1   +   2   +   3   +   4   +
    


    p   i   m   a   m   i   p   i     p   i   m   a   m   i   p   i
e|--------------0------------------|--------------0------------------|
B|----------1-------1--------------|----------1-------1--------------|
G|------2---------------2-------2--|------2---------------2-------2--|
D|--4-----------------------4------|--3-----------------------3------|
A|---------------------------------|---------------------------------|
E|---------------------------------|---------------------------------|
    1   +   2   +   3   +   4   +     1   +   2   +   3   +   4   +



    p   i   m   a   p   i   m   a     p   i   m   a   p   i   m   a
e|--------------0---------------0--|--------------0---------------0---|
B|----------1---------------1------|----------1---------------1-------|
G|------2---------------2----------|------2---------------2-----------|
D|--2---------------0--------------|----------------------------------|
A|---------------------------------|--3---------------2---------------|
E|---------------------------------|----------------------------------|
    1   +   2   +   3   +   4   +     1   +   2   +   3   +   4   +



    p   p   i   m   a   m   i   p     p   i   m   a   m   i   p   i
e|------------------0--------------|----------------------------------|
B|--------------1-------1----------|--------------1-------------------|
G|----------2---------------2------|----------2-------2---------------|
D|------2-----------------------2--|------2---------------2-------2---|
A|--0------------------------------|--0-----------------------0-------|
E|---------------------------------|----------------------------------|
    1   +   2   +   3   +   4   +     1   +   2   +   3   +   4   +



    p   p   i   m   a   m   i   p     p   i   m   a   m   i   p   i
e|------------------0--------------|----------------------------------|
B|--------------1-------1----------|--------------1-------------------|
G|----------2---------------2------|----------2-------2---------------|
D|------2-----------------------2--|------2---------------2-------2---|
A|--0------------------------------|--0-----------------------0-------|
E|---------------------------------|----------------------------------|
    1   +   2   +   3   +   4   +     1   +   2   +   3   +   4   +


Main Theme (II)


    p   i   m   a   m   i   p   i     p   i   m   a   m   i   p   i 
e|--------------0------------------|--------------0------------------|
B|----------1-------1--------------|----------1-------1--------------|
G|------2---------------2-------2--|------2---------------2-------2--|
D|--2-----------------------2------|--3-----------------------3------|
A|---------------------------------|---------------------------------|
E|---------------------------------|---------------------------------|
    1   +   2   +   3   +   4   +     1   +   2   +   3   +   4   +
    


    p   i   m   a   m   i   p   i     p   i   m   a   m   i   p   i
e|--------------0------------------|--------------0------------------|
B|----------1-------1--------------|----------1-------1--------------|
G|------2---------------2-------2--|------2---------------2-------2--|
D|--4-----------------------4------|--3-----------------------3------|
A|---------------------------------|---------------------------------|
E|---------------------------------|---------------------------------|
    1   +   2   +   3   +   4   +     1   +   2   +   3   +   4   +


[ Tab from: http://www.guitartabs.cc/tabs/p/pink_floyd/is_there_anybody_out_there_tab_ver_6.html ]
    p   i   m   p   p   i   m   a     p   i   m   a   m   i   p   p
e|------------------------------0--|--------------0-------------------|
B|----------1---------------1------|----------1-------1---------------|
G|------2---------------2----------|------2---------------2-----------|
D|--3-----------2---0--------------|--0-------------------------------|
A|---------------------------------|--------------------------3---2---|
E|---------------------------------|----------------------------------|
    1   +   2   +   3   +   4   +     1   +   2   +   3   +   4   +



    p   p   i   m   a   m   i   p     p   i   m   a   m   i   p   i
e|------------------0--------------|----------------------------------|
B|--------------1-------1----------|--------------1-------------------|
G|----------2---------------2------|----------2-------2---------------|
D|------2-----------------------2--|------2---------------2-------2---|
A|--0------------------------------|--0-----------------------0-------|
E|---------------------------------|----------------------------------|
    1   +   2   +   3   +   4   +     1   +   2   +   3   +   4   +



    p   p   i   m   a   m   i   p     p   i   m   a   m 
e|------------------0--------------|------------------0---------------|
B|--------------1-------1----------|--------------1-------------------|
G|----------2---------------2------|----------2-----------------------|
D|------2-----------------------2--|------2---------------------------|
A|--0------------------------------|--0-------------------------------|
E|---------------------------------|----------------------------------|
    1   +   2   +   3   +   4   +     1   +   2   +   3  (+) (4) (+)


Middle Section


    p   p   i   m   a   m   i   p     p   p   i   m      a   m   i
e|------------------0--------------|---------------------0------------|
B|--------------1-------1----------|--------------1-H-3------3---1----|
G|----------0---------------0------|----------0-----------------------|
D|------2-----------------------2--|------0---------------------------|
A|--3------------------------------|--2-------------------------------|
E|---------------------------------|----------------------------------|
    1   +   2   +   3   +   4   +     1   +   2   +   3   +   4   +


                                              m       m   m   m   m
    p   p   i   m   a   m   i         m   i   i       i   i   i   i
e|------------------0--------------|----------------------------------|
B|--------------0-------0----------|--5-------3-\(1)--1-P-0---0-------|
G|----------2---------------2-/(5)-|-(5)--4---4-\(2)--2-P-0---0---0---|
D|------2--------------------------|----------------------------------|
A|--0------------------------------|----------------------------------|
E|---------------------------------|----------------------------------|
    1   +   2   +   3   +   4   +     1   +   2   +   3   +   4   +



   p   p   i   m   a   m   i   p     p   p   i   m      a   m   i
e|------------------0--------------|---------------------0------------|
B|--------------1-------1----------|--------------1-H-3------3---1----|
G|----------0---------------0------|----------0-----------------------|
D|------2-----------------------2--|------0---------------------------|
A|--3------------------------------|--2-------------------------------|
E|---------------------------------|----------------------------------|
    1   +   2   +   3   +   4   +     1   +   2   +   3   +   4   +



    p   p   i   m   a   m   i   m     a            i  a
e|------------------0--------------|--8--(8)-(8)------7--(7)-(7)-(7)--|
B|--------------0-------0----------|----------------------------------|
G|----------2---------------0---9--|--------------7-------------------|
D|------2--------------------------|----------------------------------|
A|--0------------------------------|----------------------------------|
E|---------------------------------|----------------------------------|
    1   +   2   +   3   +   4   +     1  (+) (2)  +   3  (+) (4) (+)



Repeat the first 6 bars of the Main Theme (I)


Outro

    p   p   i   m       a   m   a                      [wavey strum]
e|----------------------5---7---8--|--------------12------------------|
B|--------------1-/(5)-------------|-------------10-------------------|
G|----------2----------------------|-------------9--------------------|
D|------2--------------------------|-----------10---------------------|
A|--0------------------------------|----------0-----------------------|
E|---------------------------------|----------------------------------|
    1   +   2   +   3   +   4   +


Well I think thats all of it, I'm not sure, but there you go.
Bye!
LithiumGod [LithiumGod_uk@yahoo.co.uk]

Comments