Pink Floyd - Is There Anybody Out There Chords & Tabs

 

Is There Anybody Out There Chords & Tabs

Pink Floyd Chords & Tabs

Version: 5 Type: Tab 1 rating
1 star 2 stars 3 stars 4 stars 5 stars
comments

Is There Anybody Out There Tab

#----------------------------------PLEASE NOTE--------------------------------#
#This file is the author's own work and represents their interpretation of the#
#song. You may only use this file for private study, scholarship, or research.#
#-----------------------------------------------------------------------------#
#-- File created with Instab - http://www.pconline.com/~smcarey/instab.html --#
#-----------------------------------------------------------------------------#

Author/Artist: Pink Floyd
Title: Is There Anybody Out There
Album: The Wall
Transcribed by: William Stimpson
Email: blacktouch30@hotmail.com

Here it is (I hope) play it clean with a touch of reverb
and it should flow like honey.

-|---0-------0-------0-------0----|-------0--------|-------0--------|---------
-|-------1-------1-------1-------1|-----1---1------|-----1---1------|---------
-|-----2-------2-------2-------2--|---2-------2----|---2-------2----|---------
-|-2-------2-------2-------2------|-2-----------2--|-3-----------3--|---------
-|--------------------------------|----------------|----------------|---------
-|--------------------------------|----------------|----------------|---------
                  let everyhing ring through.                                 

-|-------0--------|-------0--------|-------0-------0|----------------|--------
-|-----1---1------|-----1---1------|-----1-------1--|-------1-------1|--------
-|---2-------2----|---2-------2----|---0-------2----|-----0-------0--|--------
-|-4-----------4--|-3-----------3--|-2-------0------|---2-------0----|--------
-|----------------|----------------|----------------|-3-------2------|--------
-|----------------|----------------|----------------|----------------|--------
                                                                              

-|---------0-----------------------|---------0-----------------------|--------
-|-------1---1-----------1-----1---|-------1---1-----------1-----1---|--------
-|-----2-------2-------2---2-----2-|-----2-------2-------2---2-----2-|--------
-|---2-----------2---2-------2-----|---2-----------2---2-------2-----|--------
-|-0---------------0---------------|-0---------------0---------------|--------
-|---------------------------------|---------------------------------|--------
                                                                              

-|-------0--------|-------0--------|-------0--------|-------0--------|--------
-|-----1---1------|-----1---1------|-----1---1------|-----1---1------|--------
-|---2-------2----|---2-------2----|---2-------2----|---2-------2----|--------
-|-2-----------2--|-3-----------3--|-4-----------4--|-3-----------3--|--------
-|----------------|----------------|----------------|----------------|--------
-|----------------|----------------|----------------|----------------|--------
                                                                              
[ Tab from: http://www.guitartabs.cc/tabs/p/pink_floyd/is_there_anybody_out_there_tab_ver_5.html ]
-|-------0-------0-------0---------|---------0------|----------------|--------
-|-----1-------1-------1---1-------|-------1---1----|-------1-----1--|--------
-|---0-------2-------2-------2-----|-----2-------2--|-----2---2-----2|--------
-|-2-------0-------0---------------|---2-----------2|---2-------2----|--------
-|-----------------------------3-2-|-0--------------|-0--------------|--------
-|---------------------------------|----------------|----------------|--------
                                                                              

-|---------0------|---------0------|---------0------|-----------0----|--------
-|-------1---1----|-------1--------|-------1---1----|-------1-3---3--|--------
-|-----2-------2--|-----2----------|-----0-------0--|-----0---------0|--------
-|---2-----------2|---2------------|---2-----------2|---0------------|--------
-|-0--------------|-0--------------|-3--------------|-2--------------|--------
-|----------------|----------------|----------------|----------------|--------
                                                                              

-|---------0------|-1--------------|---------0------|-----------0----|--------
-|-------1---1----|-----3---1---0--|-------1---1----|-------1-3---3--|--------
-|-----2-------2--|----------------|-----0-------0--|-----0---------0|--------
-|---2-----------2|---2---2---2----|---2-----------2|---0------------|--------
-|-0--------------|----------------|-3--------------|-2--------------|--------
-|----------------|----------------|----------------|----------------|--------
                                                                              

-|---------0-----0|-12------10\----|-------0--------|-------0--------|--------
-|-------1--------|----------------|-----1---1------|-----1---1------|--------
-|-----2----------|----------------|---2-------2----|---2-------2----|--------
-|---2------------|----------------|-2-----------2--|-3-----------3--|--------
-|-0--------------|----------------|----------------|----------------|--------
-|----------------|----------------|----------------|----------------|--------
                                                                              

-|-------0--------|-------0--------|-------------0--|----------------|--------
-|-----1---1------|-----1---1------|---------1------|----------1-----|--------
-|---2-------2----|---2-------2----|-----2----------|------2------2--|--------
-|-4-----------4--|-3-----------3--|-2--------------|-0--------------|--------
-|----------------|----------------|----------------|----------------|--------
-|----------------|----------------|----------------|----------------|--------
                                                                              

-|----------------|----------------|----------------|-0-------11---|12--------
-|-------------1--|----------------|-------------1--|---------12---|13--------
-|---------0------|---------0------|---------2------|--------------|14--------
-|-----2----------|-----0----------|-----2----------|--------------|14--------
-|-3--------------|-2--------------|-0--------------|--------------|0---------
-|----------------|-------------3--|----------------|--------------|----------
                                                                              

Comments