Pink Floyd - Is There Anybody Out There Chords & Tabs

 

Is There Anybody Out There Chords & Tabs

Pink Floyd Chords & Tabs

Version: 4 Type: Tab 1 rating
1 star 2 stars 3 stars 4 stars 5 stars
comments

Is There Anybody Out There Tab

   
IS THERE ANYBODY OUT THERE?
Pink Floyd

from the album "THE WALL" (1979)


This is the full, CORRECT transcription for "Is There Anybody 
Out There". There are already many tabs of this song in the various
Pink Floyd archives, but most of them have mistakes. This song is
performed using a nylon-string acoustic.


    Am
|-------------------|
|-------------------|
|------2------2-----|  (x8)
|-------------------|
|---0------0--------|
|-------------------|

   Am/E                    Am/F                    Am/F#
|-----------0-----------------------0-----------------------0--------------|
|--------1-----1-----------------1-----1-----------------1-----1-----------|
|-----2-----------2-----2-----2-----------2-----2-----2-----------2-----2--|
|--2-----------------2-----3-----------------3-----4-----------------4-----|
|--------------------------------------------------------------------------|
|--------------------------------------------------------------------------|

   Am/E                    Am/E        Am/D        Am/C        Am/B
|-----------0-----------------------0-----------0-----------0-----------0--|
|--------1-----1-----------------1-----------1-----------1-----------1-----|
|-----2-----------2-----2-----2-----------2-----------2-----------2--------|
|--3-----------------3-----2-----------0-----------------------------------|
|--------------------------------------------------3-----------2-----------|
|--------------------------------------------------------------------------|

   Am
|--------------0-----------------------------------------------0-----------|
|-----------1-----1-----------------1-----------------------1-----1--------|
|--------2-----------2-----------2-----2-----------------2-----------2-----|
|-----2-----------------2-----2-----------2-----2-----2-----------------2--|
|--0-----------------------0-----------------0-----0-----------------------|
|--------------------------------------------------------------------------|

                           Am/E                    Am/F
|-----------------------------------0-----------------------0--------------|
|-----------1--------------------1-----1-----------------1-----1-----------|
|--------2-----2--------------2-----------2-----2-----2-----------2-----2--|
|-----2-----------2-----2--2-----------------2-----3-----------------3-----|
|--0-----------------0-----------------------------------------------------|
|--------------------------------------------------------------------------|

   Am/F#                   Am/F                    F           Am/D
|-----------0-----------------------0-----------------------------------0--|
|--------1-----1-----------------1-----1-----------------1-----------1-----|
|-----2-----------2-----2-----2-----------2-----2-----2-----------2--------|
|--4-----------------4-----3-----------------3-----3--------2--0-----------|
|--------------------------------------------------------------------------|
|--------------------------------------------------------------------------|
[ Tab from: http://www.guitartabs.cc/tabs/p/pink_floyd/is_there_anybody_out_there_tab_ver_4.html ]
                             Am
|-----------0--------------------------0-----------------------------------|
|--------1-----1--------------------1-----1-----------------1--------------|
|-----2-----------2--------------2-----------2-----------2-----2-----------|
|--0--------------------------2-----------------2-----2-----------2-----2--|
|--------------------3--2--0-----------------------0-----------------0-----|
|--------------------------------------------------------------------------|
                                                              C
|--------------0-----------------------0-----------------------0-----------|
|-----------1-----1-----------------1-----------------------1-----1--------|
|--------2-----------2-----------2-----------------------0-----------0-----|
|-----2-----------------2-----2-----------------------2-----------------2--|
|--0-----------------------0-----------------------3-----------------------|
|--------------------------------------------------------------------------|

   G/B                    Asus2
|----------------0--------------------0------------------------------------|
|-----------1/3-----3--1-----------0-----0-------5-----3\1--1\0--0---------|
|--------0----------------------2-----------2/5-----4--4\2--2\0--0--0------|
|-----0----------------------2---------------------------------------------|
|--2----------------------0------------------------------------------------|
|--------------------------------------------------------------------------|

   C                       G/B                    A9
|--------------0-------------------------0--------------------0------------|
|-----------1-----1-----------------1/3-----3--1-----------0-----0---------|
|--------0-----------0-----------0----------------------2-----------0------|
|-----2-----------------2-----0----------------------2---------------------|
|--3-----------------------2----------------------0------------------------|
|--------------------------------------------------------------------------|

                        Am/E                    Am/F
|-----8-------7------------------0-----------------------0-----------------|
|-----------------------------1-----1-----------------1-----1--------------|
|--9-------7---------------2-----------2-----2-----2-----------2-----2-----|
|-----------------------2-----------------2-----3-----------------3--------|
|--------------------------------------------------------------------------|
|--------------------------------------------------------------------------|

   Am/F#                   Am/F                    Am/E        Am/D
|-----------0-----------------------0-----------------------0-----------0--|
|--------1-----1-----------------1-----1-----------------1-----------1-----|
|-----2-----------2-----2-----2-----------2-----2-----2-----------2--------|
|--4-----------------4-----3-----------------3-----2-----------0-----------|
|--------------------------------------------------------------------------|
|--------------------------------------------------------------------------|

   Am/C        Am/B        Am
|-----------0-----------0----------------5--7--8-----12--------------------|
|--------1-----------1--------------1/5--------------10--------------------|
|-----2-----------2--------------2--------------------9--------------------|
|-----------------------------2----------------------10--------------------|
|--3-----------2-----------0--------------------------0--------------------|
|--------------------------------------------------------------------------|


Comments