Pink Floyd - Have A Cigar Chords & Tabs

 

Have A Cigar Chords & Tabs

Pink Floyd Chords & Tabs

Version: 2 Type: Bass Tab 0 ratings
1 star 2 stars 3 stars 4 stars 5 stars
comments

Have A Cigar Bass Tab

   
HAVE A CIGAR by Pink Floyd
--------------------------
It's tough tell what the bass is playing on the recording,
because it's under twenty layers of synth crap, so here's 
how I play it live.

Play this punchy and staccato. If you have an effects system, 
use a flanger and/or a wah pedal (I thrown in some reverb too).


RIFF A                            RIFF B

  e e e e q. e   e e e e e  q.        e e e e q. e   e e e e e q.
G--------------|---------------||   G--------------|-------------||
D---2-----2----|---2-----2-(5)-||   D---2-----2--2===2-0---------||
A-----2--------|-----2---------||   A-----2--------|-----2-1-0---||
E-0-----3----0===0-----3----3--||   E-0-----3------|-----------3-||


RIFF C                     RIFF D
[ Tab from: http://www.guitartabs.cc/tabs/p/pink_floyd/have_a_cigar_btab_ver_2.html ]
  e e e e h   w   w          e e e e h   q. q. q   w               q. q. q
G-----------|---|---|      G-----------|---------|---|-----|-----|---------||
D---2-----2-|---|-0-|      D---2-----2-|-2--4--5-|---|-----|-----|----5--4-||
A-----2-----|-3-|---|      A-----2-----|---------|-3-|-1-3-|-1-3-|-3-------||
E-0-----3---|---|---|      E-0-----3---|---------|---|-----|-----|---------||


RIFF e

  e e e e h   q. q. q   w   w   q. q. q   e q. q e e   e e
G-----------|---------|---|---|---------|------------|-----||
D---2-----2-|-2--4--5-|---|-0-|-5--4--2===2-0--------|-0-1-||
A-----2-----|---------|-3-|---|---------|------4-3-4-|-----||
E-0-----3---|---------|---|---|---------|------------|-----||


RIFF F

  e e e e h   q. q. q   q  h.  w   h. q   w   w   w   w   w   e q. e q.
G-----------|---------|------|---|------|---|---|---|---|---|----------|
D---2-----2-|-2--4--5===5----|---|-4--5===5===5-|---|---|-5-|----------|
A-----2-----|---------|----3===3-|------|---|---|-3===3-|---|----------|
E-0-----3---|---------|------|---|------|---|---|---|---|---|-3-2--2-1-|


A x 3
B
A
D
A
e
*-----
A x 4
C
A x 4
C
F
Back to *
Comments