Pink Floyd - Great Gig In The Sky Chords & Tabs

 

Great Gig In The Sky Chords & Tabs

Pink Floyd Chords & Tabs

Version: 2 Type: Tab 0 ratings
1 star 2 stars 3 stars 4 stars 5 stars
comments

Great Gig In The Sky Tab

   
****************************************************************************
* Song: The Great Gig In The Sky                                           *
* Band: Pink Floyd                                                         *
* Album: Dark Side Of The Moon                                             *
* Tabbed By: Andrey Yruski (andreyy@hotmail.com                            *
****************************************************************************

Key: v vibrato
     / slide up
     \ slide down
     ^ play string

INTRO:
Bm  F  F(b5)  F  F6  F  F(b5)  F  Bb  F/A  Gm7  C9  Gm7  C9

Fmaj7  Bbmaj7  Ebmaj7  Cm7  Cm7  F7  Bbmaj7  Ebmaj7  Bb


Slide Guitar

 ^                  ^                  ^                 ^                  
-1--1/--------v3--|------------------|-1/-----------v3--|------------------|
-1--1/--------v3--|-3/-----------v5--|-1/-----------v3--|-3/-----------v5--|
------------------|-3/-----------v5--|------------------|-3/-----------v5--|
------------------|-3/-----------v5--|------------------|-3/-----------v5--|
------------------|------------------|------------------|------------------|
------------------|------------------|------------------|------------------|
[ Tab from: http://www.guitartabs.cc/tabs/p/pink_floyd/great_gig_in_the_sky_tab_ver_2.html ]
                  "...and I am not frightened of dying, any time will do..."
 ^                  ^                 
------------------|------------------|
-5/-----------v10-|-8/----10\----v3--|
-5/-----------v10-|-8/----10\----v3--|
-5/-----------v10-|------------------|
------------------|------------------|
------------------|------------------|

                  "...why should I be frightened of dying?..."
 ^                  ^                  ^  ^  ^      ^    
------------------|-6/-----------v8--|------------------|
-3/-----------v8--|-6/-----------v8--|-8-----8---/--v10-|
-3/-----------v8--|------------------|----8------/--v10-|
------------------|------------------|----------8/--v10-|
------------------|------------------|------------------|
------------------|------------------|------------------|


 ^                                    
------------------|------------------|
-2/-v3/-------v8--|-8\-----------v3--|
-2/-v3/-------v8--|-8\-----------v3--|
------------------|------------------|
------------------|------------------|
------------------|------------------|


 ^                  
------------------|
-3/-----------15--|
-3/-----------15--|
-3/-----------15--|
------------------|
------------------|



(Vocal solo):

Gm7  C9  Gm7  C9  Gm7  C9  Gm7  C9

Bb/D  Bbm/Db  F#7  Bm

Bm  F  F(b5)  F  F6  F  F(b5)  F  Bb  F/A  Gm7  C9  Gm7  C9

Fmaj7  Bbmaj7  Ebmaj7  Cm7  F7  Bbmaj7  Ebmaj7  Bb

[Spoken: I never said I was afraid of dying.]

Gm7  C9  Gm7  C9  Gm7  C9  Gm7  C9

Gm7



Enjoy :)
Andrey.
Comments