Pink Floyd - Goodbye Blue Sky Chords & Tabs

 

Goodbye Blue Sky Chords & Tabs

Pink Floyd Chords & Tabs

Version: 5 Type: Tab 3 ratings
1 star 2 stars 3 stars 4 stars 5 stars
comments

Goodbye Blue Sky Tab

good bye blue sky- pink floyd

Gtr.I
|------------------------------------------------------|
|------------------------------------------------------|
|-----------0-----------------------0------------------|
|-----4-----------4-----4-----4-----------4-----4------|
|--5-----5-----5-----5-----5-----5-----5-----5---------|
|------------------------------------------------------|
|Gtr.II                                                |
|------------------------------------------------------|
|------------------------------------------------------|
|------------------------------------------------------|
|-----4-----5--(5)/-7---------4-----5-----4------------|
|--5-----5--7--(7)/-9------5-----5---------------------|
|------------------------------------------------------|


 Gtr.I
|------------------------------------------------------|
|------------------------------------------------------|
|-----------0-----------------------0------------------|
|-----4-----------4-----4-----4-----------4--2---------|
|--5-----5-----5-----5-----5-----5-----5--------3--2---|
|------------------------------------------------------|
|Gtr.II                                                |
|------------------------------------------------------|
|------------------------------------------------------|
|------------------------------------------------------|
|-----4-----5--(5)/-7---0h2p0---4---5-----4--2---------|
|--5-----5--7--(7)/-9---------0---0-------------3--2---|
|------------------------------------------------------|


 Gtr.I
|------------------------------------------------------|
|------------------------------------------------------|
|-----5-----5------------4----4------------------------|
|------------------------------------------------------|  
|--0-----0-----0----0---------0----0----0----0---------|
|------------------------------------------------------|
|Gtr.II                                                |
|------------------------------------------------------|
|------------------------------------------------------|
|-----5-----5------------4------------------------5----|
|------------------------------------------------------|
|--0---------------------------------------------------|
|------------------------------------------------------|


 Gtr.I
|------------------------------------------------------|
|------------------------------------------------------|
|-----5-----5------------4----4------------------------|
|------------------------------------------------------|  
|--0-----0-----0----0---------0----0----0----0---------|
|------------------------------------------------------|
|Gtr.II                                                |
|------------------------------------------------------|
|------------------------------------------------------|
|-----5-----5------------4-----------------------------|
|------------------------------------------------------|
|--0---------------------------------------------------|
|------------------------------------------------------|


 Gtr.I
|------------------------------------------------------|
|------------------------------------------------------|
|-----5-----5------------4----4-------4-----5-----6----|
|------------------------------------------------------|
|--0-----0-----0----0---------0----0-----0-----0-------|
|------------------------------------------------------|
|Gtr.II                                                |
|------------------------------------------------------|
|------------------------------------------------------|
|-----5-----5------------4----4-------4-----5-----6----|
|------------------------------------------------------|
|--0---------------------------------------------------|
|------------------------------------------------------|


 Gtr.I
|------------------------------------------------------|
|------------------------------------------------------|
|--------0-----------0-----------0-----------0---------|
|-----4-----4-----4-----4-----4-----4-----4-----4------|
|--5-----------5-----------5-----------5---------------|
|------------------------------------------------------|
|Gtr.II                                                |
|------------------------------------------------------|
|------------------------------------------------------|
|--7---------------------------------------------------|
|-------------------------------5/7--5-----4-----------|
|-------------------------------7/9--7-----5-----2p0---|
|------------------------------------------------------|


 Gtrs.I&II
|------------------------------------------------------|
|------------------------------------------------------|
|-----11-----9----------7----------6-----6h7p6---------|
|--0------0-----0----0-----0----0-----0---------0------|
|------------------------------------------------------|
|------------------------------------------------------|

|------------------------------------------------------|
|------------------------------------------------------|
|--------0-----------0-----------0-----------0---------|
|-----4-----4-----4-----4-----4-----4-----4-----4------|
|--2-----------2-----------2-----------2---------------|
|------------------------------------------------------|

|------------------------------------------------------|
|------------------------------------------------------|
|-----11-----9----------7----------6-----6h7p6---------|
|--0------0-----0----0-----0----0-----0---------0------|
|------------------------------------------------------|
|------------------------------------------------------|

|------------------------------------------------------|
|------------------------------------------------------|
|--------0-----------0-----------0-----------0---------|
|-----4-----4-----4-----4-----4-----4-----4-----4------|
|--2-----------2-----------2-----------2---------------|
|------------------------------------------------------|

|------------------------------------------------------|
|------------------------------------------------------|
|-----11-----9----------7----------6-----6h7p6---------|
|--0------0-----0----0-----0----0-----0---------0------|
|------------------------------------------------------|
|------------------------------------------------------|

|------------------------------------------------------|
|------------------------------------------------------|
|--------0-----------0-----------0-----------0---------|
|-----4-----4-----4-----4-----4-----4-----4-----4------|
|--2-----------2-----------2-----------2---------------|
|------------------------------------------------------|
[ Tab from: http://www.guitartabs.cc/tabs/p/pink_floyd/goodbye_blue_sky_tab_ver_5.html ]
|------------------------------------------------------|
|------------------------------------------------------|
|-----5-----5-----5-----5-----4----4-------------------|
|------------------------------------------------------|
|--0-----0-----0-----0-----0-------0----0----0---------|
|------------------------------------------------------|

|------------------------------------------------------|
|------------------------------------------------------|
|-----5-----5-----5-----5-----4----4-------------------|
|------------------------------------------------------|
|--0-----0-----0-----0-----0-------0----0----0---------|
|------------------------------------------------------|

|------------------------------------------------------|
|------------------------------------------------------|
|-----5-----5----------5-----4-----4-----2-----2-------|
|------------------------------------------------------|
|--0-----0-----0----0-----0-----0-----0-----0----------|
|------------------------------------------------------|

|------------------------------------------------------|
|------------------------------------------------------|
|-----0-----0------------------------------------------|
|----------------------4-----4-----2-----2-----0-------|
|--0-----0-----0----0-----0-----0-----0-----0-------4--|
|------------------------------------------------------|

|------------------------------------------------------|
|------------------------------------------------------|
|--------0-----------0-----------0-----------0---------|
|-----4-----4-----4-----4-----4-----4-----4-----4------|
|--2-----------2-----------2-----------2---------------|
|------------------------------------------------------|

|------------------------------------------------------|
|------------------------------------------------------|
|-----------0-----------------------0------------------|
|-----4-----------4-----4-----4-----------4-----4------|
|--5-----5-----5-----5-----5-----5-----5-----5---------|
|------------------------------------------------------|

|------------------------------------------------------|
|------------------------------------------------------|
|-----11-----9----------7----------6-----6h7p6---------|
|--0------0-----0----0-----0----0-----0---------0------|
|------------------------------------------------------|
|------------------------------------------------------|

|------------------------------------------------------|
|------------------------------------------------------|
|--------0-----------0-----------0-----------0---------|
|-----4-----4-----4-----4-----4-----4-----4-----4------|
|--2-----------2-----------2-----------2---------------|
|------------------------------------------------------|

|------------------------------------------------------|
|------------------------------------------------------|
|-----11-----9----------7----------6-----6h7p6---------|
|--0------0-----0----0-----0----0-----0---------0------|
|------------------------------------------------------|
|------------------------------------------------------|

|------------------------------------------------------|
|------------------------------------------------------|
|--------0-----------0-----------0-----------0---------|
|-----4-----4-----4-----4-----4-----4-----4-----4------|
|--2-----------2-----------2-----------2---------------|
|------------------------------------------------------|

|------------------------------------------------------|
|------------------------------------------------------|
|-----5-----5------------4----4------------------------|
|------------------------------------------------------|  
|--0-----0-----0----0---------0----0----0----0---------|
|------------------------------------------------------|

|------------------------------------------------------|
|------------------------------------------------------|
|-----5-----5------------4----4------------------------|
|------------------------------------------------------|  
|--0-----0-----0----0---------0----0----0----0---------|
|------------------------------------------------------|

|------------------------------------------------------|
|------------------------------------------------------|
|-----5-----5------------4----4-------4-----5-----6----|
|------------------------------------------------------|
|--0-----0-----0----0---------0----0-----0-----0-------|
|------------------------------------------------------|


 Gtr.I
|------------------------------------------------------|
|------------------------------------------------------|
|--------0-----------0-----------0-----------0---------|
|-----4-----4-----4-----4-----4-----4-----4-----4------|
|--5-----------5-----------5-----------5---------------|
|------------------------------------------------------|
|Gtr.II                                                |
|------------------------------------------------------|
|------------------------------------------------------|
|------------------------------------------------------|
|-------------------------------5/7--5-----4-----------|
|-------------------------------7/9--7-----5-----2p0---|
|------------------------------------------------------|


 Gtrs.I&II
|------------------------------------------------------|
|--7-------5------------8-------7----------------------|
|--7-------6------------9-------7----------------------|
|--0----0-----0----0----0----0-----0----0--------------|
|------------------------------------------------------|
|------------------------------------------------------|

|------------------------------------------------------|
|-----7-----5------------8-------7-------7----5--------|
|-----7-----6------------9-------7-------7----5--------|
|--0-----0-----0----0----0----0-----0----0-------------|
|------------------------------------------------------|
|------------------------------------------------------|

|------------------------------------------------------|
|--------------------5-----------------7----5----------|
|--------------------5-----------------7----5----------|
|--0----0----0----0-----0----0----0----0---------------|
|------------------------------------------------------|
|------------------------------------------------------|

|------------------------------------------------------|
|--------------------5---------------------------------|
|--------------------5---------------------------------|
|--0----0----0----0-----0----0----0----0---------------|
|--------------------------------(3p2p0)---------------|
|---------------------------------------(3b)-----------|

|------------------------------------------------------|
|------------------------------------------------------|
|-----------0-----------------------0------------------|
|-----4-----------4-----4-----4-----------4-----4------|
|--5-----5-----5-----5-----5-----5-----5-----5---------|
|------------------------------------------------------|
                                              (fade out)
 good song, well yea u know email me or im me
--chris
Comments