Pink Floyd - Goodbye Blue Sky Chords & Tabs

 

Goodbye Blue Sky Chords & Tabs

Pink Floyd Chords & Tabs

Version: 4 Type: Tab 3 ratings
1 star 2 stars 3 stars 4 stars 5 stars
comments

Goodbye Blue Sky Tab

   
THis took julian ayres and joe stevens 45 hours to work out so i dont care if it is slighlty wrong!



Gtr I, II (E A D G B E) - 'nylon acoustic' 

0 : 25
  Q=109
 4/4
  Gtr I
  E E E E E E  E  E   E E E E  E  E  E  E
|-------------------|---------------------|
|-------------------|---------------------|
|-------0-----------|-------0-------------|
|---4-------4-----4-|---4---------4-----4-|
|-5---5---5----5----|-5---5----5-----5----|
|-------------------|---------------------|
|
| Gtr II
|                                 ~~~~~~
| E E E E E E +Q      E E E E +E  E +Q
|-------------------|---------------------|
|-------------------|---------------------|
|-------------------|-------0-(0)---------|
|---4---5-5s7-(7)---|---4---------4-(4)---|
|-5---5-7-7s9-(9)---|-5---5---------------|
|-------------------|---------------------|


  E E E E E E  E    E     E E E E  E  E E S S
|-----------------------|---------------------|
|-----------------------|---------------------|
|-------0---------------|-------0-------------|
|---4-------4-------4---|---4---------4-2-----|
|-5---5---5----5--------|-5---5----5------3-2-|
|-----------------------|---------------------|
|
|                 |-3-|
| E E E E E E +E  S S S   E E E E +E  E E S S
|-----------------------|---------------------|
|-----------------------|---------------------|
|-----------------------|-------0-(0)---------|
|---4---5-5s7-(7)-0-2-0-|---4---------4-2-----|
|-5---5-7-7s9-(9)-------|-0---0-----------3-2-|
|-----------------------|---------------------|


             ~~~
  E E E  E  +Q   E E   W                  E  E E E Q  E E   W
|--------------------|-----------------|------------------|-------------|
|--------------------|-----------------|------------------|-------------|
|---5----5--(5)----4-|-4---------------|-----5---5------4-|-4-----------|
|--------------------|-----------------|------------------|-------------|
|-0---0-(0)-(0)--0---|-0---0--0---0----|--0----0---0--0---|-0--0--0--0--|
|--------------------|-----------------|------------------|-------------|
|                      Q   Q  Q   Q                         Q  Q  Q  Q
|
|                                         ~~~               ~
| E E E  H         E   H.        +E  E   +Q.     H      E   W
|--------------------|-----------------|------------------|-------------|
|--------------------|-----------------|------------------|-------------|
|---5----5---------4-|-4---------(4)-5-|-(5)-----5------4-|-4-----------|
|--------------------|-----------------|------------------|-------------|
|-0------------------|-----------------|------------------|-------------|
|--------------------|-----------------|------------------|-------------|


             ~~~
  E E E  E  +Q   E E   E. S  +E  E  E  E  E  E
|--------------------|--------------------------|
|--------------------|--------------------------|
|---5----5--(5)----4-|-4s=5--(5)s4-----5-----6\-|
|--------------------|--------------------------|
|-0---0-(0)-(0)--0---|-0-(0)-(0)----0-----0-----|
|--------------------|--------------------------|
|
|   ~
| E Q    H         E   Q.        E +E  E +E  E
|--------------------|--------------------------|
|--------------------|--------------------------|
|---5----5---------4-|-4---------4-(4)-5-(5)-6--|
|--------------------|--------------------------|
|--------------------|--------------------------|
|--------------------|--------------------------|


  E E E E E E E E    E  E E    E  E  E  E  E
|-----------------|----------------------------|
|-----------------|----------------------------|
|-----0-------0---|-------0-------------0------|
|---4---4---4---4-|-----4------4-----4-----4---|
|-5-------5-------|--5------------5------------|
|-----------------|----------------------------|
|
| ~
| W                 +E  E T S. E +E  E +E  S S
|-----------------|----------------------------|
|-----------------|----------------------------|
|-7---------------|-(7)---0----0-(0)-----------|
|-----------------|-------5s7--5-(5)-4-(4)-----|
|-----------------|-------7s9--7-(7)-5-(5)-2p0-|
|-----------------|----------------------------|


   Pre-Verse
    Gtrs I, II
           ~               ~
    E  E E E Q  E E   Q  E E E S S E E   E E E E E E E E   E E E E E E E E  3x
||------------------|------------------|-----------------|------------------||
||o-----------------|------------------|-----------------|-----------------o||
||----11---9------7-|------6---6h7p6---|-----0-------0---|-----0-------0----||
||--0----0---0--0---|-0--0---0-------0-|---4---4---4---4-|---4---4---4---4--||
||o-----------------|------------------|-2-------2-------|-2-------2-------o||
||------------------|------------------|-----------------|------------------||

[ Tab from: http://www.guitartabs.cc/tabs/p/pink_floyd/goodbye_blue_sky_tab_ver_4.html ]
 Verse
  E E E E E E E E   E E Q  Q  Q    E E E E E E E E   E E Q  Q  Q
|-----------------|--------------|-----------------|--------------|
|-----------------|--------------|-----------------|--------------|
|---5---5---5---5-|---4-4--------|---5---5---5---5-|---4-4--------|
|-----------------|--------------|-----------------|--------------|
|-0---0---0---0---|-0---0--0--0--|-0---0---0---0---|-0---0--0--0--|
|-----------------|--------------|-----------------|--------------|


  E E E E Q  E E   E E E E E E E E   E E E E E E E E   E E E E E E +E  E
|----------------|-----------------|-----------------|-------------------|
|----------------|-----------------|-----------------|-------------------|
|---5---5------5-|---4---4---2-2-2-|---0-0-0---------|-------------------|
|----------------|-----------------|-----------4-4-4-|---2-2-2---0-(0)---|
|-0---0---0--0---|-0---0---0---0---|-0---0---0---0---|-0---0---0-------3-|
|----------------|-----------------|-----------------|-------------------|


  E E E E E E E E   E E E E E E E E   E E E E E E E E   E E E E E E E E
|-----------------|-----------------|-----------------|-----------------|
|-----------------|-----------------|-----------------|-----------------|
|-----0-------0---|-----0-------0---|-------0---------|-------0---------|
|---4---4---4---4-|---4---4---4---4-|---4-------4---4-|---4-------4---4-|
|-2-------2-------|-2-------2-------|-5---5---5---5---|-5---5---5---5---|
|-----------------|-----------------|-----------------|-----------------|


   Pre-Verse
           ~      ~        ~
    E  E E E Q  E E   Q  E E E S S E E   E E E E E E E E   E E E E E E E E
||------------------|------------------|-----------------|------------------||
||o-----------------|------------------|-----------------|-----------------o||
||----11---9------7-|------6---6h7p6---|-----0-------0---|-----0-------0----||
||--0----0---0--0---|-0--0---0-------0-|---4---4---4---4-|---4---4---4---4--||
||o-----------------|------------------|-2-------2-------|-2-------2-------o||
||------------------|------------------|-----------------|------------------||


 Verse
  E E E E E E E E   E E Q  Q  Q    E E E E E E E E   E E Q  Q  Q
|-----------------|--------------|-----------------|--------------|
|-----------------|--------------|-----------------|--------------|
|---5---5---5---5-|---4-4--------|---5---5---5---5-|---4-4--------|
|-----------------|--------------|-----------------|--------------|
|-0---0---0---0---|-0---0--0--0--|-0---0---0---0---|-0---0--0--0--|
|-----------------|--------------|-----------------|--------------|


  Gtr I
    ~
  E E E E Q  E E   Q  E E E E E E
|----------------|-----------------|
|----------------|-----------------|
|---5---5------4-|------4---5-6-7\-|
|----------------|-----------------|
|-0---0---0--0---|-0--0---0---0----|
|----------------|-----------------|
|
| Gtr II
|   ~
| E E E E Q  E E   Q  E E E E E E
|----------------|-----------------|
|----------------|-----------------|
|---5---5------4-|------4---5-6-7\-|
|----------------|-----------------|
|-0---0---0--0---|-0--0---0---0----|
|----------------|-----------------|


  E E E E E E E E   E E E    E  E  E  E  E
|-----------------|--------------------------|
|-----------------|--------------------------|
|-------0---------|----------0---------------|
|---4-------4---4-|---4------------4-----4---|
|-5---5---5---5---|-5---5-------5-----5------|
|-----------------|--------------------------|
|
| E E E E E E E E   Q   T S. E +E  E +E  S S
|-----------------|--------------------------|
|-----------------|--------------------------|
|-------0---------|-----0----0-(0)-----------|
|---4-------4---4-|-----5s7--5-(5)-4-(4)-----|
|-5---5---5---5---|-----7s9--7-(7)-5-(5)-2p0-|
|-----------------|--------------------------|


 Chorus
  Gtrs I, II
  Q  E E Q  Q    Q  E E Q  Q    Q  E E Q  Q    Q  E E Q  E E
|--------------|--------------|--------------|---------------|
|-7----5-------|-8----7-------|-7----5-------|-8----7----7-5-|
|-7----6-------|-9----7-------|-7----6-------|-9----7----7-5-|
|-0--0---0--0--|-0--0---0--0--|-0--0---0--0--|-0--0---0--0---|
|--------------|--------------|--------------|---------------|
|--------------|--------------|--------------|---------------|


  Q  Q  Q  E E    Q   Q  Q  E E    Q   Q  Q  E E    Q   Q  Q  Q
|--------------|----------------|----------------|---------------|
|------------5-|-(5)--------7-5-|-(5)----------5-|-(5)-----------|
|------------5-|-(5)--------7-5-|-(5)----------5-|-(5)-----------|
|-0--0--0--0---|--0---0--0--0---|--0---0--0--0---|--0---0--0--0--|
|--------------|----------------|----------------|---------------|
|--------------|----------------|----------------|---------------|


   Fade to Empty Space
    E E E E E E E E   E E E E E E E E  3x
||------------------|------------------||
||o-----------------|-----------------o||
||--------0---------|-------0----------||
||----4-------4---4-|---4-------4---4--||
||o-5---5---5---5---|-5---5---5---5---o||
||------------------|------------------||
for a better representation of this tab you need the Power Tab Score
Real sheetmusic (as in books and mags) with MIDI playback

 get the Power Tab Score Download the Power Tab Editor 

PINK FLOYD
at
  

Pink Floyd tab page 
guitar forum tab legend 
guestbook home 
contents E-mail 
Comments