Pink Floyd - Empty Spaces Chords & Tabs

 

Empty Spaces Chords & Tabs

Pink Floyd Chords & Tabs

Version: 3 Type: Bass Tab 0 ratings
1 star 2 stars 3 stars 4 stars 5 stars
comments

Empty Spaces Bass Tab

Empty Spaces
By: Pink Floyd
Submitted by "Nick"

Bass starts at 00:47
G|----------------------------------------------------------------|
D|----------------------------------------------------------------|
A|----------------------------------------------------------------|
E|-7-----------2-----------7-----------2-----------0-----------2--|

-------------------------------|
-------------------------------|
-------------------------------|
------3-----------5-----7------|

G|-----|
D|-----|
A|-----|    [now pause for a moment before the bass run]
E|--9--|

Bass run
G|-----------------------|
D|--9--7--5--4--2--0-----|
A|--------------------2--|    [hold the last note until about half a second]
E|-----------------------|    [before the lyrics start]
[ Tab from: http://www.guitartabs.cc/tabs/p/pink_floyd/empty_spaces_btab_ver_3.html ]
G|---------------------------------------------------------------|
D|---------------------------------------------------------------|
A|---------------------------------------------------------------|
E|------0-----2-----2---3---------3--2--------0------2-----2---3-|
      "what  shall  we use       to fill     the   empty  spa-ces"

----------------------------|
----------------------------|
----------------------------|
---3-----2---3-----3---2----|
"where   we used   to talk"

G|----------------------------------------------|
D|----------------------------------------------|
A|----------------------------------------------|
E|------0-----2------2---3-----3--2-----0---2---|
      "how shall-I fill the   fin-al   pla-ces"

----------------------------------------|
----------------------------------------|
----------------------------------------|
----3-----2----3---3----2------0---2----|
  "how  should I  comp-lete   the wall________?"
Comments