Pink Floyd - Comfortably Numb Chords & Tabs

 

Comfortably Numb Chords & Tabs

Pink Floyd Chords & Tabs

Version: 3 Type: Tab 0 ratings
1 star 2 stars 3 stars 4 stars 5 stars
comments

Comfortably Numb Tab

2:05

e|--14~~~~--14b15---------------------------------------14b15r14-------------|
B|-----------------15b17----15--14--14----------------------------15b17------|
G|-------------------------------------14------------------------------------|
D|----------------------------------------14-\-12--12~~~---------------------|
A|---------------------------------------------------------------------------|
E|---------------------------------------------------------------------------|

2:18

e----------------------------------------------------------------------------|
B--15--14--------------------------------------------------------------------|
G----------14---------------------12~~--11----------11p9--11--9--7~~-9p7----7|
D--------------14-\-12--11--9--7-----------14--12------------------------9---|
A----------------------------------------------------------------------------|
E----------------------------------------------------------------------------|
[ Tab from: http://www.guitartabs.cc/tabs/p/pink_floyd/comfortably_numb_tab_ver_3.html ]
2:27                                                 

e------------15-- 14-- 12----------------------------------------------------|
B------------------------ 15-- 12--------------------------------------------|
G--9--11b12---------------------- 12-----------------------------------------|
D------------------------------------ 12~~-- 10\9~~~10\9\7~~-----------------|
A----------------------------------------------------------------------------|
E----------------------------------------------------------------------------|

 2:39
e----------------------------------------------------------------------------|
B----------------------------------------------------------------------------|
G--11b12--9b11--9b11r9\7-----------------------------------------------------|
D-------------------------7\9\7----------------------------------------------|
A----------------------------------------------------------------------------|
E----------------------------------------------------------------------------|
Comments