Pink Floyd - Comfortably Numb Chords & Tabs

 

Comfortably Numb Chords & Tabs

Pink Floyd Chords & Tabs

Version: 1 Type: Tab 0 ratings
1 star 2 stars 3 stars 4 stars 5 stars
comments

Comfortably Numb Tab

comfortably numb
pink floyd
the wall

solo 1

|-14~~~~~~~--12--14b(15)r(14)---------------------------------------------------
|-----------------------------15b(17)~~~~~--15-14---14--------------------------
|------------------------------------------------------14-----------------------
|---------------------------------------------------------14~~~~~---12~~~~~~~~~-
|-------------------------------------------------------------------------------
|-------------------------------------------------------------------------------

|-x--14b(15)r(14)p12--------------------------------------------------------
|--------------------15b(17)~~~--15p14---------------------------11---------
|--------------------------------------14--------------/12~~~~~------14--12-
|-----------------------------------------14/12-11-9-7----------------------
|---------------------------------------------------------------------------
|---------------------------------------------------------------------------

|---------------------------------------------15-14-12-------------------
|------------------------------------------------------15-12-------------
|-11/9-9---7~~~~~~--9p7---7-9-11---(11)b(12)-----------------12----------
|-----------------------9---------------------------------------12~~~~~~-
|------------------------------------------------------------------------
|------------------------------------------------------------------------
[ Tab from: http://www.guitartabs.cc/tabs/p/pink_floyd/comfortably_numb_tab.html ]
|-------------------------------------------------------------
|-------------------------------------------------------------
|-----------------------------9b(11)~~~--9p7h9-----7/9/7~~~~~-
|-10/9~~~~~~-10/7~~~~~~~--------------------------------------
|-------------------------------------------------------------
|-------------------------------------------------------------

hereís the first part of the outro solo (about 4:30 into the song)
i dont have it completely done (actually iím not even close), but hereís the beginning.

|---------------------------------------------------------------------------------------10-
|------------------------------------------------------10----10-10-12-12b(15)~~~--10-12----
|-7--9-9b(11)~~~~~~~9b(11)~~~r9p7-9~~~--7---7-------11----11-------------------------------
|-----------------------------------------9------------------------------------------------
|------------------------------------------------------------------------------------------
|------------------------------------------------------------------------------------------

|---------------------------------------------------------------------
|-----------------------------10p7---7--------------------------------
|-7--9-9b(11)r9p7------------------9---9-7------------------7~~-------
|-----------------9~~~~~~~~~~--------------9~~~~~----7-7--9-----9p7-9-
|--------------------------------------------------9------------------
|---------------------------------------------------------------------

|-7h9-9b(10)~~~~-7----7-7~~~~-----------------------------------------------------
|------------------10---------10p7---7-----10p7---7-------------------------------
|----------------------------------9------------9---9-7---9-7---------------------
|-------------------------------------------------------9-----9-7-----------------
|-----------------------------------------------------------------9-8-7-5---5~~~~-
|-------------------------------------------------------------------------7-------
Comments