Pink Floyd - Cluster One Chords & Tabs

 

Cluster One Chords & Tabs

Pink Floyd Chords & Tabs

Version: 1 Type: Tab 0 ratings
1 star 2 stars 3 stars 4 stars 5 stars
comments

Cluster One Tab

Pink Floyd
Cluster One

E-----------------------------------------------------------------------
B-----------------------------------------------------------------------
G---------------------------------------------------------------17------
D-----------------------------------------------------------------------
A-----------------------------------------------------------------------
E-----------------------------------------------------------------------
                                                      
E-----------------------------------------------------------------------
B-----------------------------------------------------------------------
G---15--14--10/12--------14--17^--------14--17^-------------------------
D---------------------------------------------------17~~~--12--14-------
A-----------------------------------------------------------------------
E-----------------------------------------------------------------------

E-----------------------------------------------------------------------
B-----------------------------------------------------------20^~~~------
G-----------------------------------------------------------------------
D---~~~-----------17~~~--14p12--9/11--9p7--3/5~~~-----------------------
A-----------------------------------------------------------------------
E-----------------------------------------------------------------------

E-----------------------------------------------------------------------
B-----------------------------------------------------------------------
G---19------15/17-------------------------------------------------------
D-------17---------17^--------------------------------------------------
A-----------------------17p15-------------------------------------------
E------------------------------17/19--17\15-----14--10/12^~~~-----------

E-----------------------------------------------------------------------
B-----------------------------------------------------------------------
G------20^~~~-----------------------------------------------------------
D-----------------------------------------------------------------------
A--------------------------------------------17/19\17^-----14~~~--------
E-----------------------------------------------------------------------
                                                      
                 
E-----------------------------------------------------------------------
B-------------------------------------------18--20^~~~------------------
G--------------16^~~~----------------15/17--------------------15/17-----
D------17^-------------17--12/14----------------------------------------
A-----------------------------------------------------------------------
E-----------------------------------------------------------------------
[ Tab from: http://www.guitartabs.cc/tabs/p/pink_floyd/cluster_one_tab.html ]
E-------19^-------------------------------------------------------------
B---18------------------------------------------------------------------
G-------------------------------------5--4--4--0--2---------------------
D---------------17--17--17^~~~------------------------------------------
A-------------------------------------5--4--4--0--2---------------------
E-----------------------------------------------------------------------
                                                   
E-----------------------------------------------------------------------
B-----------------------------------------------------------------------
G---------15/17^------------17--19^--15--17^--------17--16--14^---------
D-----------------------19----------------------------------------------
A-----------------------------------------------------------------------
E-----------------------------------------------------------------------

E-------21^--21---------------------------------------------------------
B-------------------19---19---19----------------------------------------
G---21--------------18^--18^--18^--17p15--17^--------19^--19^--17-------
D-----------------------------------------------------------------------
A-----------------------------------------------------------------------
E-----------------------------------------------------------------------

E-----------------------------------------------------------------------
B-----------------------------------------------------------------------
G---19--19^-----17^---------------17^------13/15------------------------
D--------------------17/19-------------17---------------12/14--14-------
A-----------------------------------------------------------------------
E-----------------------------------------------------------------------
                                                      
E-----------------------------------------------------------------------
B-----------------------------------------------------------------------
G---12------------------------------------------------------------------
D-------14--12-------------------------------------------------16-------
A---------------12h14p12~~~--------5/7--0--5--5--5----------------------
E---------------------------------------------------3/5-----------------

E-----------------------------------------------------------------------
B-----------------------------------------------------------------------
G---17^--17--16--14--16^~~~--------19^--18--19^-------------------------
D-----------------------------------------------------------------------
A-----------------------------------------------------------------------
E-----------------------------------------------------------------------

Play the 3s quietly                              
                 
E-----------------------------------------------------------------------
B-----------------------------------------------------------------------
G-----------------------------------------------------------------------
D-----------------------------------------------------------------------
A---3-----3-----3-----3--3--3--------------3----------------------------
E-----------------------------------------------------------------------
Comments