Pink Floyd - Careful With That Axe Eugene Chords & Tabs

 

Careful With That Axe Eugene Chords & Tabs

Pink Floyd Chords & Tabs

Version: 2 Type: Bass Tab 0 ratings
1 star 2 stars 3 stars 4 stars 5 stars
comments

Careful With That Axe Eugene Bass Tab

Transcription by Jérôme Melançon (melancon@mindless.com)
Careful with that Axe, Eugene
by Pink Floyd


main theme
|--------------------------------------|
|--11-----------11-----------11--------|
|--------------------------------------|
|---------9------------9------------9--|

variation #1
|-----------------------------------------------------|
|--11-----------11---------------11--------11---------|
|----------------------------------------------11-----|
|---------9------------9-------------9-------------9--|
[ Tab from: http://www.guitartabs.cc/tabs/p/pink_floyd/careful_with_that_axe_eugene_btab_ver_2.html ]
variation #2
|-------------------------------------------------------|
|--11-----------11------------11-------------11---------|
|-------------------11---------------------------11-----|
|---------9-------------9------------9---------------9--|

variation #3
|------------------------------|
|--11-----------9h11--9h11-----|
|------------------------------|
|---------9-----------------9--|


The bass on this song follows the main theme all along, with
many variations.  The ones listed here are the most common.
Waters also does a little improv. at the end.  The scale he
uses is C#.

Updated:  March 14/99
Comments