Pink Floyd - Bring The Boys Back Home Chords & Tabs

 

Bring The Boys Back Home Chords & Tabs

Pink Floyd Chords & Tabs

Version: 1 Type: Tab

Bring The Boys Back Home Tab

     Bring the boys back home
E|-0-----------2---------3-----------|
B|-1-----------3---------0-----------|
G|-0-----------2---------0-----------|
D|-2-----------0---------0-----------|
A|-3---------------------2-----------|
E|-----------------------3-----------|

     Bring the boys back home
E|-0-----------2---------3-----------|
B|-1-----------3---------0-----------|
G|-0-----------2---------0-----------|
D|-2-----------0---------0-----------|
A|-3---------------------2-----------|
E|-----------------------3-----------|
[ Tab from: http://www.guitartabs.cc/tabs/p/pink_floyd/bring_the_boys_back_home_tab.html ]
     Dont leave the children home alone
E|-0----------------2---------3---3---0-----|
B|-1----------------3---------0---0---1-----|
G|-0----------------2---------0---0---0-----|
D|-2----------------0---------0---0---2-----|
A|-3--------------------------2---0---3-----|
E|----------------------------3---2---------|

     Bring the boys back home
E|-0-----------2---------0-----------|
B|-1-----------3---------0-----------|
G|-0-----------2---------0-----------|
D|-2-----------0---------2-----------|
A|-3---------------------2-----------|
E|-----------------------0-----------|