Pink Floyd - Brain Damage Chords & Tabs

 

Brain Damage Chords & Tabs

Pink Floyd Chords & Tabs

Version: 2 Type: Tab 0 ratings
1 star 2 stars 3 stars 4 stars 5 stars
comments

Brain Damage Tab

   
 ok this is my first tab so go easy, i think it pretty much right, although its
hard to hear the chorus bits over the vocals and added effect, so i stole that
bit off the other tabs on this page.


intro:

-2-2-2--2--2-2-2--2--2-2-2--2--2--2--2-2-
--3---3-----3---3-----3---3-----3-----3--
-------2---------2---------------2-------
-----------------------------------------
-----------------------------------------
-----------------------------------------

this bit works for each verse (except the third verse where 3 and 4 are repaeated):

1,the lunatic is...         2,the lunatic is...
-2-2-2--2--1-1-1--1---      -2-2-2--2--1--1-1--1--
--3---3-----0---0-----      --3---3-----0----0----
-------2---------0----      -------2-----0----0---
----------------------      ----------------------
----------------------      ----------------------
----------------------      ----------------------

3,remembering games...      4,got to keep...
-2-2-2--2-4-4-4--4---       -3--3-3--3-2-2-0-0---
--3---3----5---5-----       --2----2----3---1-1--
-------2--------4----       ---2----2------------
---------------------       ---------------------
---------------------       ---------------------
---------------------       ---------------------
[ Tab from: http://www.guitartabs.cc/tabs/p/pink_floyd/brain_damage_tab_ver_2.html ]
chorus:
G			    A
		 And if the dam breaks ...
-----0---0------------------------------------------------------
-1-----0------------------0-----------0--------------2----------
----------------------0---0---0---------0------------2--------2-
---4--------------------------------0-----------2----2----0>2---
----------------------------------2----------0--0---------------
-----------0-2---3--------------3---------3---------------------

	     C				      G
	 And if there is no ...
-------------------0-------------------------------------
-------2-------1-----3-1>3-----------------------------0-
-----2---2-------0-----------------0---0---------------0-
---2--------------------------2----2---2--2--------0-----
-0---------0-3--------------3---3--3---3--3--------------
-----------------------------------------------3---------

					    A7
	And if your head explodes ...
-----------------------------------------------------------
--0-------0-----0------------------0--------------0--------
-----0----0--0--0--------------0------0-------0>2---0-0>2--
----------0---------------0-----------------2--------------
--------------------------------------------0--------------
--------3------------3-------------------3-----------------

	     I'll see you in the ...
---------------------------------------0-0-------------------------
--------2------------------1-----------1-1-----------------0-------
----2-----2------------0--------0------0-0-------------------0-----
------2--------------------------------2-2-------------------------
--0---------------3-----------------3----3-----------------------0-
---------------------------------------------------3-----3-----3---


Ah----------		   Ah
-----------------------------------------
-----3----------3---------------2---2----
---2---2---0----4-------0-----2---2---0--
---------4-2--------5--------------------
-2---------2----------------0------------
-----------0-----------------------------

outro:
play the bits of the chorus numbered:
1,2,3,4,3,4,


end, hope u like it
Comments