Pink Floyd - Another Brick In The Wall Part 2 Chords & Tabs

 

Another Brick In The Wall Part 2 Chords & Tabs

Pink Floyd Chords & Tabs

Version: 5 Type: Bass Tab 0 ratings
1 star 2 stars 3 stars 4 stars 5 stars
comments

Another Brick In The Wall Part 2 Bass Tab

                 ANOTHER BRICK IN THE WALL (PART II) (Bassline)
                            As recorded by Pink Floyd
                         (From the 1979 Album THE WALL)

Transcribed by www.mikesguitarsite.co.uk

    Q=105
   4/4
    Gtr I
||---------------|--------------|--------------|--------------|
||o--------------|--------------|--------------|--------------|
||o--------------|--------------|-5------------|--------------|
||---------------|--------------|--------------|--------------|
|
|   Gtr II
||-------------3-|------------3-|------------3-|------------3-|
||o----0-----0---|----0-----0---|----0-----0---|----0-----0---|
||o-2-----2------|-2-----2------|-2-----2------|-2-----2------|
||---------------|--------------|--------------|--------------|


|--------------|--------------|---------------|---------------|
|--------------|--------------|---------------|---------------|
|--------------|--------------|-5----3-5------|-5----5----3---|
|--------------|--------------|---------------|--------5------|
|
|------------3-|------------3-|-------------3-|-------------3-|
|----0-----0---|----0-----0---|----0------0---|----0------0---|
|-2-----2------|-2-----2------|-2------2------|-2------2------|
|--------------|--------------|---------------|---------------|


|---------------|---------------|---------------|---------------|
|---------------|---------------|---------------|---------------|
|-5----3-5------|-5----5----3---|-5----3-5------|-5----5----3---|
|---------------|--------5------|---------------|--------5------|
|
|-------------3-|-------------3-|-------------3-|-------------3-|
|----0------0---|----0------0---|----0------0---|----0------0---|
|-2------2------|-2------2------|-2------2------|-2------2------|
|---------------|---------------|---------------|---------------|


|---------------|---------------|----------------|----------------|
|---------------|---------------|----------------|----------------|
|-5----3-5------|-5----5--------|----------------|----------------|
|---------------|--------5--4---|-3-----3---3----|-3-----3---3----|
|
|-------------3-|-------------3-|--------------3-|--------------3-|
|----0------0---|----0------0---|----0------0----|----0------0----|
|-2------2------|-2------2------|-2-----2--------|-2-----2--------|
|---------------|---------------|----------------|----------------|


|--------------|-----------------|---------------|----------------|
|--------------|-----------------|---------------|----------------|
|--------------|-------------3---|-5----3-5------|-5----3---------|
|-3-----3------|-3---3---3-------|---------------|--------5--3----|
|
|------------3-|---------------3-|-------------3-|-------------3--|
|----0-----0---|-----0-------0---|----0------0---|----0------0----|
|-2-----2------|-2-------2-------|-2------2------|-2------2-------|
|--------------|-----------------|---------------|----------------|


|----------------|----------------|---------------|---------------|
|----------------|----------------|---------------|---------------|
|----------------|-3-----3---3----|-5----3-5------|-5----3-0------|
|-1-----1---1----|----------------|---------------|-----------3---|
|
|--------------3-|--------------3-|-------------3-|-------------3-|
|----0------0----|----0------0----|----0------0---|----0------0---|
|-2-----2--------|-2-----2--------|-2------2------|-2------2------|
|----------------|----------------|---------------|---------------|


|----------------|----------------|--------------|---------------||
|----------------|----------------|--------------|--------------o||
|----------------|-3-----3---3----|-5------------|--------------o||
|-1-----1---1----|----------------|--------------|---------------||
|
|--------------3-|--------------3-|------------3-|------------3--||
|----0------0----|----0------0----|----0-----0---|----0-----0---o||
|-2-----2--------|-2-----2--------|-2-----2------|-2-----2------o||
|----------------|----------------|--------------|---------------||

[ Tab from: http://www.guitartabs.cc/tabs/p/pink_floyd/another_brick_in_the_wall_part_2_btab_ver_5.html ]
|---------------|---------------|---------------|---------------|
|---------------|---------------|---------------|---------------|
|-5----3-5------|-5----5----3---|-5----3-5------|-5----3-5------|
|---------------|--------5------|---------------|---------------|
|
|-------------3-|-------------3-|-------------3-|-------------3-|
|----0------0---|----0------0---|----0------0---|----0------0---|
|-2------2------|-2------2------|-2------2------|-2------2------|
|---------------|---------------|---------------|---------------|


|---------------|---------------|---------------|---------------|
|---------------|---------------|---------------|---------------|
|-5----3-5------|-5----5----3---|-5----3-5------|-5----3-5------|
|---------------|--------5------|---------------|---------------|
|
|-------------3-|-------------3-|-------------3-|-------------3-|
|----0------0---|----0------0---|----0------0---|----0------0---|
|-2------2------|-2------2------|-2------2------|-2------2------|
|---------------|---------------|---------------|---------------|


|---------------|---------------|---------------|---------------|
|---------------|---------------|---------------|---------------|
|-5----3-5------|-5----5----3---|-5----3-5------|-5----3-5------|
|---------------|--------5------|---------------|---------------|
|
|-------------3-|-------------3-|-------------3-|-------------3-|
|----0------0---|----0------0---|----0------0---|----0------0---|
|-2------2------|-2------2------|-2------2------|-2------2------|
|---------------|---------------|---------------|---------------|


|---------------|---------------|---------------|---------------|
|---------------|---------------|---------------|---------------|
|-5----3-5------|-5----5----3---|-5----3-5------|-5----3-5------|
|---------------|--------5------|---------------|---------------|
|
|-------------3-|-------------3-|-------------3-|-------------3-|
|----0------0---|----0------0---|----0------0---|----0------0---|
|-2------2------|-2------2------|-2------2------|-2------2------|
|---------------|---------------|---------------|---------------|


|---------------|---------------|---------------|---------------|
|---------------|---------------|---------------|---------------|
|-5----3-5------|-5----5----3---|-5----3-5------|-5----3-5------|
|---------------|--------5------|---------------|---------------|
|
|-------------3-|-------------3-|-------------3-|-------------3-|
|----0------0---|----0------0---|----0------0---|----0------0---|
|-2------2------|-2------2------|-2------2------|-2------2------|
|---------------|---------------|---------------|---------------|


|---------------|---------------|---------------|---------------|
|---------------|---------------|---------------|---------------|
|-5----3-5------|-5----5----3---|-5----3-5------|-5----3-5------|
|---------------|--------5------|---------------|---------------|
|
|-------------3-|-------------3-|-------------3-|-------------3-|
|----0------0---|----0------0---|----0------0---|----0------0---|
|-2------2------|-2------2------|-2------2------|-2------2------|
|---------------|---------------|---------------|---------------|


|---------------|---------------|---------------|---------------|
|---------------|---------------|---------------|---------------|
|-5----3-5------|-5----5----3---|-5----3-5------|-5----3-5------|
|---------------|--------5------|---------------|---------------|
|
|-------------3-|-------------3-|-------------3-|-------------3-|
|----0------0---|----0------0---|----0------0---|----0------0---|
|-2------2------|-2------2------|-2------2------|-2------2------|
|---------------|---------------|---------------|---------------|


|---------------|---------------|---------------*|
|---------------|---------------|---------------*|
|-5----3-5------|-5----5----3---|-5----3-5------*|
|---------------|--------5------|---------------*|
|
|-------------3-|-------------3-|-------------3-*|
|----0------0---|----0------0---|----0------0---*|
|-2------2------|-2------2------|-2------2------*|
|---------------|---------------|---------------*|
Comments