Pink Floyd - A Saucerful Of Secrets Chords & Tabs

 

A Saucerful Of Secrets Chords & Tabs

Pink Floyd Chords & Tabs

Version: 1 Type: Tab 0 ratings
1 star 2 stars 3 stars 4 stars 5 stars
comments

A Saucerful Of Secrets Tab

   
Pink Floyd - A Saucerful of Secrets
Tabbed by springwaffle

This is the "Celestial Voices" part. 
Dropped D [low to high]: D a D g b e
[ Tab from: http://www.guitartabs.cc/tabs/p/pink_floyd/a_saucerful_of_secrets_tab.html ]
  Bm   a    e    F#   D    C  g    e    D  a    F#
e----------------------------------------------------
b----------------------------------------------------
g----------------------------------------------------
d-9----7----2----4----0----0w-5----2----0--7----4----
a-9----7----2----4----0----0w-5----2----0--7----4----
e-9----7----2----4----0----0w-5----2----0--7----4----
                            ^ use whammy to bend down to C
  Bm   a  g    F#   Em   D    F#
e--------------------------------------
b--------------------------------------
g--------------------------------------
d-9----7--5----4----2----0----4--------
a-9----7--5----4----2----0----4--------
e-9----7--5----4----2----0----4--------

    Bm   a    e    F#   D    C  g    F# e    D  a    g  F#
e|-----------------------------------------------------------
b|*----------------------------------------------------------
g|-----------------------------------------------------------
d|--9----7----2----4----0----0w-5----4--2----0--7----5--4----
a|*-9----7----2----4----0----0w-5----4--2----0--7----5--4----
e|--9----7----2----4----0----0w-5----4--2----0--7----5--4----
                              ^ use whammy to bend down to C
  Bm   a  g    F#   Em   D    F#          b
e---------------------------------------|--------
b--------------------------------------*|--------
g---------------------------------------|--------
d-9----7--5----4----2----0----4---------|-9------
a-9----7--5----4----2----0----4--------*|-9------
e-9----7--5----4----2----0----4---------|-9------
Comments