Pink - God Is A Dj Chords & Tabs

 

God Is A Dj Chords & Tabs

Pink Chords & Tabs

Version: 1 Type: Tab 0 ratings
1 star 2 stars 3 stars 4 stars 5 stars
comments

God Is A Dj Tab

   
God is a DJ - Pink
Tabbed by Martin Koellensperger


Verse

e|-----------------------------------------------------------------|
B|-------0----0---1----1-------1----1------0----0------------------|
G|-------0----0---0----0-------0----0------0----0------------------|
D|-----------------------------------------------------------------|
A|-------------------------3-----3------3----3---------------------|
E|---3-----3----3----3---------------------------------------------|


Chorus
G   A   A#  C

[ Tab from: http://www.guitartabs.cc/tabs/p/pink/god_is_a_dj_tab.html ]
e|----------------------------------------------------------------|
B|-------0---------1------------1-----------0---------------------|
G|-------0---------0------------0-----------0---------------------|
D|----------------------------------------------------------------|
A|-------------------------3------------3-------------------------|
E|---3---------3--------------------------------------------------|

BRIDGE
e|--3-3-3------------------------3-3-3-----------------------------|
B|--3-3-3-----------1------------3-3-3-------------1-----(x-x-x)---|
G|------------------0------------------------------0-----(x-x-x)---|
D|-----------------------------------------------------------------|
A|-------------3-----------------------------3---------------------|
E|------------------------3-3-3------------------------------------|


Prechorus
e|-------3-----------3-----------3----------3----------------------|
B|-------3-----------3-----------3----------3----------------------|
G|-----------------------------------------------------------------|
D|-----------------------------------------------------------------|
A|--------------------------3-3--------3-3-------------------------|
E|---3-3--------5-5------------------------------------------------|

mezcalitosworld@hotmail.com
Comments