Pink - Dont Let Me Get Me Chords & Tabs

 

Dont Let Me Get Me Chords & Tabs

Pink Chords & Tabs

Version: 1 Type: Tab 0 ratings
1 star 2 stars 3 stars 4 stars 5 stars
comments

Dont Let Me Get Me Tab

   
Ok, i think this is pretty much the whole song. This is my first tab, so don't blame me if 
it's bad, but i think it's pretty good. o well, have fun.

Standard Tuning

/=slide
h=hammer-on
p=pull-off

Main Chords:
e---------------------
B---------------------
G-8-88-5-55-3-33------
D-8-88-5-55-3-33-6-66-
A-6-66-3-33-1-11-6-66-
E----------------4-44-
[ Tab from: http://www.guitartabs.cc/tabs/p/pink/dont_let_me_get_me_tab.html ]
Main Riff:
e-------------------------------------------------
B-------------------------------------------------
G-------------------------------------------------
D-13----------10---10-----------------------------
A---13-11-10----10---10--8-8-8h10p8-8--6-6-6h8p6-6
E-------------------------------------------------

The Chorus is the chords and riff together

Solo:
e-1/11-11--------8-8------------------
B--------11-9-8---8-8--6-6-6h8-6--4-4-
G-------------------------------------
D------------------------------------- 
A-------------------------------------
E-------------------------------------

Then after that is some fancy stuff i couldn't tab. Sawey.

Comments