Pink - Cuz I Can Chords & Tabs

 

Cuz I Can Chords & Tabs

Pink Chords & Tabs

Version: 1 Type: Bass Tab 0 ratings
1 star 2 stars 3 stars 4 stars 5 stars
comments

Cuz I Can Bass Tab

Pink - Cuz i can

Album - I'm not dead

Standard tuning

I know this may not be perfect so don't email me with complaints

Verse

G -----------------------------------------------------|
D -----------------------------------------------------|   X4
A -----------------------------------------------------|
E -0--0--0--0--0--0--0--0--0--0--0--0--0--0--0--0------|

Chorus

G ------------------------------------------------------|
D ------------------------------------------------------|   X3
A -3--3--3--3--0--0--0--0-------------------------------|
E -----------------------------0--0--0--0--0--0--0--0---|

G -------------------------------------------------------|
D -------------------------------------------------------|
A -3--3--3--3--5--5--5--5--7--7--7--7--7--7--7--7--------|
E -------------------------------------------------------|

Verse 2

G -----------------------------------------------------|
D -----------------------------------------------------|   X4
A -----------------------------------------------------|
E -0--0--0--0--0--0--0--0--0--0--0--0--0--0--0--0------|


Chorus 2
[ Tab from: http://www.guitartabs.cc/tabs/p/pink/cuz_i_can_btab.html ]
G ------------------------------------------------------|
D ------------------------------------------------------|   X3
A -3--3--3--3--0--0--0--0-------------------------------|
E -----------------------------0--0--0--0--0--0--0--0---|

G -------------------------------------------------------|
D -------------------------------------------------------|
A -3--3--3--3--5--5--5--5--7--7--7--7--7--7--7--7--------|
E -------------------------------------------------------|


Middle

G ------------------------------------------------------|
D ------------------------------------------------------|    X2
A ------------------------------------------------------|
E -0--0--0--0--0--0--0--0--0--0--0--0--0--0--0--0-------|


Chorus

G ------------------------------------------------------|
D ------------------------------------------------------|   X3
A -3--3--3--3--0--0--0--0-------------------------------|
E -----------------------------0--0--0--0--0--0--0--0---|

G -------------------------------------------------------|
D -------------------------------------------------------|
A -3--3--3--3--5--5--5--5--7--7--7--7--7--7--7--7--------|
E -------------------------------------------------------|

Repeat chorus one more time and end


Any comments please feel free to email me at medusa1148@hotmail.com
Comments