Pinhead Gunpowder - Big Yellow Taxi Chords & Tabs

 

Big Yellow Taxi Chords & Tabs

Pinhead Gunpowder Chords & Tabs

Version: 1 Type: Bass Tab 0 ratings
1 star 2 stars 3 stars 4 stars 5 stars
comments

Big Yellow Taxi Bass Tab

SONG: Big Yellow Taxi
BAND: Pinhead Gunpowder
ALBUM: Jump Salty
TABBER: Tom Onion

Hey this song kicks ass, so i thought there should be a bass tabs for it.
i didn't really do this myself, just saw a guitar tab, and followed the chords.
don't like it? i don't care, sounds ok to me.

INTRO
G:|-----------
D:|-----------
A:|-5-5-7-7---
E:|---------5- 
[ Tab from: http://www.guitartabs.cc/tabs/p/pinhead_gunpowder/big_yellow_taxi_btab.html ]
VERSE
G:|--------------------------------------------------------------
D:|--------------------------------------------------------------
A:|--------------------------------------------------------------
E:|-777777777777777---555555555---7777777777777---555555555------
    they paved....    ..lot...    with a pink     ....spot

CHORUS
G:|--------------------------------------------------------------
D:|--------------------------------------------------------------
A:|----77----55-----------5555-----------------------------------
E:|-55----33---------7777------5555-55x5-------------------------
    don't it... they paved....
Comments