Pinback - Your Sickness Chords & Tabs

 

Your Sickness Chords & Tabs

Pinback Chords & Tabs

Version: 1 Type: Tab 0 ratings
1 star 2 stars 3 stars 4 stars 5 stars
comments

Your Sickness Tab

   
Song Title: Your Sickness
Band Name: Pinback
Album: Blue Screen Life
Tabbed by: Casey C.


	Tuning: DGCGBe - Drop E, A, & D down two steps.


****************************************
  
  Main Riff - This plays once before lyrics kick in.

e ----------------------------------------------------------------
B ----------------------------------------------------------------
G ----------------------------------------------------------------
C --2-------0------------------------2----3---3-------------------   
G 5---5---3---3-----3--------------5---5----3------3--------------
D ----------------6---6----1-1/6-0---------------6---6----1-1/6-0-
                                                                        2x

e ------------------------------------------------------------------
B ------------------------------------------------------------------
G ------------------------------------------------------------------
C ---2-------0-----------------------2----3---3---------------------
G -5---5---3---3----3--------------5---5----3-----3-0-1-------------
D ----------------6---6----1-1/6-0--------------6----------1-1/6-0--


******************************************

After that plays 2x this kicks in.

   Bridge - Tricky to pick out...

e --------------------------------
B --------------------------------
G --------------------------------  3x
C --0---0---3---3---4---4---3---3-  
G --------1---1---5---5---5---5---
D 3---3---------------------------

("In spite of all our work..."

*******************************************

After that, the main riff plays 2x again but with a a small guitar part added on:

  Riff 2
[ Tab from: http://www.guitartabs.cc/tabs/p/pinback/your_sickness_tab.html ]
e -------------------------------------------------------------------------------
B ------11---------11/13/11--------------------11---------11/13/11---------------
G 12-10------12-10----------12-10--------12-10------12-10----------12-10---------   2x
C --------------------------------12-------------------------------------12/14/12
G -------------------------------------------------------------------------------
D -------------------------------------------------------------------------------



*******************************************

Then this kicks in: 

  Pre-chorus - Resembles bridge.

e -------------------------------
B -------------------------------
G ----------------9-9-9-9-8-8-8-8
C 5-5-5-5-8-8-8-8-7-7-7-7-7-7-7-7  4x
G 5-5-5-5-8-8-8-8-5-5-5-5-5-5-5-5
D 3-3-3-3-6-6-6-6----------------

("Take us for__ a ride__________...")


******************************************

Then the chorus:


e --------------------------------------
B --------------------------------------
G 5---5-5--5---5-5--5--5-5--5-5-5/3-3-3-
C 7---7-7--7---7-7--7--7-7--7-7-7/3-3-3-   2x
G 5---5-5--5---5-5--5--5-5--5-5-5/3-3-3-
D --------------------------------------
("Gotta admit, you got us good...")


*******************************************

So the song then goes back and plays the Main Riff once,
but with another new guitar part layering it:

    Acoustic Riff 3

e --------------------------------
B 3---4---3---4-------4---3---3---
G --3---3---2---2-3-5---5---5---5-  2x
C --------------------------------
G --------------------------------
D --------------------------------

*******************************************

Song then goes back to the chorus and plays 7x to finish.

*******************************************

Guitar KEY:  / - slide up or down
                
********************************************

Cool song with a great pre-chorus, enjoy.
Comments