Pinback - Some Voices Chords & Tabs

 

Some Voices Chords & Tabs

Pinback Chords & Tabs

Version: 1 Type: Tab 1 rating
1 star 2 stars 3 stars 4 stars 5 stars
comments

Some Voices Tab

Song Title: Some Voices
Band Name: Pinback
Album: Some Voices (EP)
Tabbed by: Casey C.

  
   Standard Tuning: EADGBe


******************************

   Riff 1 - Guitar 1

e ----------------------------------------------------------
B ----------------------------------------------------------
G ---------------------------------------------------------- 1x
D 7-9-7--9-7--7--10-7--10-7--7--7----7---------7----7-------
A --------------------------------12---12--12----12--12--12-
E ----------------------------------------------------------

*****************************

  Riff 2 - The most recognizable part in the song (tabbed for guitar.)

e 12--12--13--13/17-
B ------------------
G ------------------  Repeats throughout song.
D ------------------
A ------------------
E ------------------


********************************

 Riff 3 - Guitar 1 - Starts when piano starts.
[ Tab from: http://www.guitartabs.cc/tabs/p/pinback/some_voices_tab.html ]
e ------------------------------------------------------------------------
B ------------------------------------------------------------------------
G ------------------------------------------------------------------------
D 7-7-7-7-7-7-7-7-5-5-5-5-5-5-5-5-(4x)-3-3-3-3-3-3-3-5-----------------(4x)
A 7-7-7-7-7-7-7-7-7-7-7-7-7-7-7-7------5-5-5-5-5-5-5-5-4-4-4-4-4-4-4-4----
E -----------------------------------------------------5-5-5-5-5-5-5-5----
                                      ("She lays among the flowers...")

********************************

Song then plays the whole thing over again once. But this time when it plays the second
part of Riff 3, a small guitar part layers it.

********************************  
  
Riff 3 Layer - Guitar 2 - Plays the same thing but adds a little fill at the end:

e ----------------------------------
B ----------------------------------
G ---------------------------------- 
D 3-3-3-3-3-3-3-5-------7-5----x-x-x
A 5-5-5-5-5-5-5-5-4-4-4-----9--x-x-x
E ----------------5-5-5-------------  
  ("It's like a hurricane...")


********************************

Song then fades playing Riff 3.

********************************

Guitar KEY:  / - slide up or down
             x - mute and strike the string with the x.
             h - hammer-on
             p - pull-off

********************************

Nice little song on an awesome EP, enjoy.

Comments