Pimp Carrot - Blitzkrieg Bop Chords & Tabs

 

Blitzkrieg Bop Chords & Tabs

Pimp Carrot Chords & Tabs

Version: 1 Type: Tab 1 rating
1 star 2 stars 3 stars 4 stars 5 stars
comments

Blitzkrieg Bop Tab

   
PIMP CARROT - Blitzkrieg Bop (Hey Ho, Let's Go!)

INTRO
e|---------------------------------------------------------------|
B|---------------------------------------------------------------|
G|-----------------------------------------7--7--9--9--9--9--9---|
D|---5--5--5--5--5--5--7--7--7--7--7--7----7--7--9--9--9--9--9---|
A|---5--5--5--5--5--5--7--7--7--7--7--7----5--5--7--7--7--7--7---|
E|---3--3--3--3--3--3--5--5--5--5--5--5--------------------------|

A
e|----------------------------------------------| x3
B|----------------------------------------------|
G|------------------------7--7--9--9--9--9--9---|
D|----7--7--7--7--7--7----7--7--9--9--9--9--9---|
A|----7--7--7--7--7--7----5--5--5--7--7--7--7---|
E|----5--5--5--5--5--5--------------------------|

B
e|--------------------------|
B|--------------------------|
G|-------------7--7---------|
D|----7--7--7--7--7--7--7---|
A|----7--7--7--5--5--7--7---|
E|----5--5--5--------5--5---|

Hey ho, let's go!
Hey ho, let's go!

A
They're forming in a straight line

A
They're going through a tight wind

A
The kids are losing their minds
[ Tab from: http://www.guitartabs.cc/tabs/p/pimp_carrot/blitzkrieg_bop_tab.html ]
B
The Blitzkrieg Bop

A
They're piling in the back seat

A
They're generating steam heat

A
Pulsating to the back beat

B
The Blitzkrieg Bop.

e|----------------|-------------|
B|----------------|-------------|
G|---7--7--7...---|-------------|
D|---7--7--7...---|---7--7--7---|
A|---5--5--5...---|---7--7--7---|
E|----------------|---5--5--5---|
Hey ho, let's go;  	shoot'em in the back now.

e|----------------|---------------------------|
B|----------------|---------------------------|
G|---7--7--7------|-----------------7--7--9---|
D|---7--7--7------|---5--5--5--5----7--7--9---|
A|---5--5--5...---|---5--5--5--5----5--5--7---|
E|----------------|---3--3--3--3--------------|
What they want, I don't know; they're all reved up and ready to go.

A
They're forming in a straight line

A
They're going through a tight wind

A
The kids are losing their minds

B
The Blitzkrieg Bop

A
They're piling in the back seat

A
They're generating steam heat

A
Pulsating to the back beat

B
The Blitzkrieg Bop.

Hey ho, let's go!
Hey ho, let's go!
Comments