Pillows - Tonight Chords & Tabs

 

Tonight Chords & Tabs

Pillows Chords & Tabs

Version: 1 Type: Bass Tab 0 ratings
1 star 2 stars 3 stars 4 stars 5 stars
comments

Tonight Bass Tab

The Pillows - Tonight (Track 9 from White Incarnation)
Bass Tab by Bojan (bojanjo@comcast.net)

Intro x2
G----------------------------------|
D----------------------------------|
A-7-7-7--4---4------4-5-6-7---5----|
E----------5---5--7---------5---5--|

Verse x2
G------------------------------------------------------|
D------------------------------------------------------|
A-7p0-0h4-0-0h2-0-0h4-0-0h7-0-0h4-0-0h2-0-2h3-4p0-4----|
E------------------------------------------------------|

Chorus x2
G--------------------------------|
D--------------------------------|
A-5-4---4---4-3---4-5-6-7---5----|
E-----7---5-----7---------5---5--|

Intro x2
G----------------------------------|
D----------------------------------|
A-7-7-7--4---4------4-5-6-7---5----|
E----------5---5--7---------5---5--|
[ Tab from: http://www.guitartabs.cc/tabs/p/pillows/tonight_btab.html ]
Verse x2
G------------------------------------------------|
D------------------------------------------------|
A-7p0-0h4-0-0h2-0-0h7-0-0h4-0-0h2-0-2h3-4p0-4----|
E------------------------------------------------|

Chorus x2 (x4 for the instrumental portion, but loosen up a bit)
G--------------------------------|
D--------------------------------|
A-5-4---4---4-3---4-5-6-7---5----|
E-----7---5-----7---------5---5--|

Bridge
G------------------------------------------|
D-----------4-6/7-6-4-2-0------------------|
A-----4-5-7---------------2-4-5-6-7---5----|
E-5-7-------------------------------5---5--|

G------------------------------------------|
D-----------4-6/7-6-4-2-0---------2-4-6-7--|
A-----4-5-7---------------2-4-5-6----------|
E-5-7--------------------------------------|

Do Chorus again then the intro

Ending 2x
G-----------|
D-----------|
A-2h3-4-----|
E-----------|
Comments