Pillows - Tiny Boat Chords & Tabs

 

Tiny Boat Chords & Tabs

Pillows Chords & Tabs

Version: 1 Type: Tab 0 ratings
1 star 2 stars 3 stars 4 stars 5 stars
comments

Tiny Boat Tab

Tiny Boat
tabbed by Dizzid/mommy

the pillows

Intro:
(0:00 - 0:18) x5
e|----------0---4---0---------0--|
b|o-----0---------------2---3---o|
g|--1s2---2---2---2---2---2------|
d|-------------------------------|
a|o-----------------------------o|
e|-------------------------------|

(0:18 - 0:25)
e|----------0---4---0-------------5-4-2--------|
b|------0---------------2---3---------2-2-2-0--|
g|--1s2---2---2---2---2---2---1s2-----2--------|
d|---------------------------------------------|
a|---------------------------------------------|
e|---------------------------------------------|

Verse 1:
(0:25 - 0:33)
e|--s12--10---9--10s12-5--s4-4-4-4-4-7--4-5-2--|
b|--s14--12--10--12s14-7--s5-5-5-5-5-9--5-7-3--|
g|---------------------------------------------|
d|---------------------------------------------|
a|---------------------------------------------|
e|---------------------------------------------|

(0:33 - 40)
e|--s12--10---9--10s12-5--4s5-5-5s7-7-7s-9-7-10--9-10--|
b|--s14--12--10--12s14-7--5s7-7-7s9-9-9s10-9-12-10-12--|
g|-----------------------------------------------------|
d|-----------------------------------------------------|
a|-----------------------------------------------------|
e|-----------------------------------------------------|

(0:40 - 0:48)
e|--s12--10---9--10s12-5--s4-4-4-4-4-7--4-5-2--|
b|--s14--12--10--12s14-7--s5-5-5-5-5-9--5-7-3--|
g|---------------------------------------------|
d|---------------------------------------------|
a|---------------------------------------------|
e|---------------------------------------------|

(0:48 - 0:54)
e|--s12--10---9--10s12-5--4-----5-----7------9--4---|
b|--s14--12--10--12s14-7--5-5s7---7s9---9s10----5---|
g|--------------------------------------------------|
d|--------------------------------------------------|
a|--------------------------------------------------|
e|--------------------------------------------------|

(0:54 - 0:57, palm muted:)
e|---12-12-10-10--9--9-7-7--9--9-7-7-5-5-7-7---|
b|---14-14-12-12-10-10-9-9-10-10-9-9-7-7-9-9---|
g|---------------------------------------------|
d|---------------------------------------------|
a|---------------------------------------------|
e|---------------------------------------------|

(0:57 - 1:01, palm muted:)
e|---12-12-10-10--9--9-7-7-15-15-15-12-12-10-10-10--|
b|---14-14-12-12-10-10-9-9-12-12-15-14-14-12-12-12--|
g|--------------------------------------------------|
d|--------------------------------------------------|
a|--------------------------------------------------|
e|--------------------------------------------------|

(1:01 - 1:05, palm muted, slowly release:)
e|---12-12-10-10--9--9-7-7--9--9-7-7-5-5-7-7---|
b|---14-14-12-12-10-10-9-9-10-10-9-9-7-7-9-9---|
g|---------------------------------------------|
d|---------------------------------------------|
a|---------------------------------------------|
e|---------------------------------------------|

(1:05 - 1:09)
e|------0-----0-----0-----0---0----0--|
b|----0-----0-----0-----0-------------|
g|--2-----4-----6-----7-----9---11----|
d|------------------------------------|
a|------------------------------------|
e|------------------------------------|
[ Tab from: http://www.guitartabs.cc/tabs/p/pillows/tiny_boat_tab.html ]
(1:09 - 1:12)
e|--------------------------12-10--9-7--|
b|--9-10-9-10s12-10-9-10s14----12-10-9--|
g|--9-11-9-11s13-11-9-11----------------|
d|--------------------------------------|
a|--------------------------------------|
e|--------------------------------------|

Chorus 1:
(1:12 - 1:17)
e|------------0--12-9----------9--12-9--7s-9--9-5s7--|
b|------10-----------------9------------9s10-10-7s9--|
g|--s11----11-----------s9---9-----------------------|
d|---------------------------------------------------|
a|---------------------------------------------------|
e|---------------------------------------------------|

(1:17 - 1:20, sd = slide down the neck, toward the headstock)
e|-------9-------10-------12sd--|
b|--9s10---10s12----12s14-14sd--|
g|------------------------------|
d|------------------------------|
a|------------------------------|
e|------------------------------|

(1:20 - 1:27, su = slide up the neck, toward the body)
e|------------0--12----------9--12------------9-10--su12-12-12v--|
b|------10---------------9-----------9-10-12-10-12--su14----14v--|
g|--s11----11---------s9---9---------9-11-13---------------------|
d|---------------------------------------------------------------|
a|---------------------------------------------------------------|
e|---------------------------------------------------------------|

(1:27 - 1:32)
e|------------0--12-9----------9--12-9--7s-9--9-5s7--|
b|------10-----------------9------------9s10-10-7s9--|
g|--s11----11-----------s9---9-----------------------|
d|---------------------------------------------------|
a|---------------------------------------------------|
e|---------------------------------------------------|

(1:32 - 1:34)
e|-------9-------10-------12sd--|
b|--9s10---10s12----12s14-14sd--|
g|------------------------------|
d|------------------------------|
a|------------------------------|
e|------------------------------|

(1:34 - 1:41)
e|------------0-----12---------9---12--7s-9--9--7-7--9--9--12v--|
b|------10-----------------9-----------9s10-10--9-9-10-10--14v--|
g|--s11----11----11-----s9---9---9------------------------------|
d|--------------------------------------------------------------|
a|--------------------------------------------------------------|
e|--------------------------------------------------------------|



-------------------------------------------------------------------------


Tiny Boat

Intro

el---------0---4---0-----------0---
Bl-----0---------------2---3-------
Gl-1h2---2---2---2---2---2---2-----
Dl---------------------------------
Al---------------------------------
El---------------------------------


el-/5---0---2------------
Bl--------------2---2----
Gl----2---2---2---2------
Dl-----------------------
Al-----------------------
El-----------------------


Verse 1

el-12--10--9---10/12---5--4--7--4-4--5--2--
Bl-14--12--10--12/14---7--5--9--5-5--7--3--
Gl-----------------------------------------
Dl-----------------------------------------
Al-----------------------------------------
El-----------------------------------------

el-12--10--9---10/12---5----4-4--4-4/5-5-5/7--7--9---10--
Bl-14--12--10--12/14---7----5-5--5-5/7-7-7/9--9--10--10--
Gl-------------------------------------------------------
Dl-------------------------------------------------------
Al-------------------------------------------------------
El-------------------------------------------------------

el-12--10--9---10/12--5---4---5---7---9-----
Bl-14--12--10--12/14--7-----5---7---9---10--
Gl------------------------------------------
Dl------------------------------------------
Al------------------------------------------
El------------------------------------------
Comments