Pillows - Stalker Chords & Tabs

 

Stalker Chords & Tabs

Pillows Chords & Tabs

Version: 1 Type: Tab 0 ratings
1 star 2 stars 3 stars 4 stars 5 stars
comments

Stalker Tab

The Pillows - Stalker (Please mr. lostman)
Tab by Frederik Nakstad / spect
E-Mail: spect182@yahoo.com

Stadard tuning (EADGBe)

Riff1 X 2
----------------------------------------------------------------------|
----------------------------------------------------------------------|
-------------------6-6-6-6-6-6-6-6------------------------------------|
-5-5--8-8-8-8-8-8--6-6-6-6-6-6-6-6--5-5--8-8-8-8-8-8--3-3-3-3-3-3-3-3-|
-5-5--8-8-8-8-8-8--4-4-4-4-4-4-4-4--5-5--8-8-8-8-8-8--3-3-3-3-3-3-3-3-|
-3-3--6-6-6-6-6-6-------------------3-3--6-6-6-6-6-6--1-1-1-1-1-1-1-1-|

Riff2
------------------------------------------------|
----------4-----------3-----------1-----------1-|
-------3-----------2-----------0-----------0----|
----6-----------5-----------3-----------2-------|
-6-----------5-----------3-----------3----------|
------------------------------------------------|

----------------------------------------------------------|
----------4-----------3-----------------------------------|
-------3-----------2-----5-5-5-5-5-5-5-5--7-7-7-7-7-7-7-7-|
----6-----------5--------5-5-5-5-5-5-5-5--7-7-7-7-7-7-7-7-|
-6-----------5-----------3-3-3-3-3-3-3-3--5-5-5-5-5-5-5-5-|
----------------------------------------------------------|
[ Tab from: http://www.guitartabs.cc/tabs/p/pillows/stalker_tab.html ]
-----------------------------|
-----------------------------|
-12-13-12----14-15-14----16~-|
----------13----------15-----|
-----------------------------|
-----------------------------|


Riff1 x 2

Riff2


-----------|
-10b12-10~-| (Tremolo pick while bending the 10b12)
-----------|
-----------|
-----------|
-----------|


----------------------------------          ----------------------------------|
----------------------------------          ----------------------------------|
----------------------------------          ------------------7-7-7-7-7-7-7-7-|
-3-3-3-3-3-3-3-3--5-5-5-5-5-5-5-5- X 3 Then -3-3-3-3-3-3-3-3--7-7-7-7-7-7-7-7-|
-3-3-3-3-3-3-3-3--5-5-5-5-5-5-5-5-          -3-3-3-3-3-3-3-3--5-5-5-5-5-5-5-5-|
-1-1-1-1-1-1-1-1--3-3-3-3-3-3-3-3-          -1-1-1-1-1-1-1-1------------------|

-----------------------------|
-----------------------------|
-12-13-12----14-15-14----16~-|
----------13----------15-----|
-----------------------------|
-----------------------------|

-----------------------|
-----------------------|
-------------------6-6-|
-5-5--8-8-8-8-8-8--6-6-|
-5-5--8-8-8-8-8-8--4-4-|
-3-3--6-6-6-6-6-6------|

My first tab :D I'm pretty sure it's correct, but if
you have questions/comments, send me an e-mail.
Comments