Pillows - Sincere Note Chords & Tabs

 

Sincere Note Chords & Tabs

Pillows Chords & Tabs

Version: 1 Type: Tab 0 ratings
1 star 2 stars 3 stars 4 stars 5 stars
comments

Sincere Note Tab

song Sincere Note
Album:this just a song the pillows played
Tabbed by:Mike Cortez
-|-----------------|-------------|---------|---------------|-----------------|
-|-------7-7-7h8-7-|-5-3-3-3h5-3-|-3-2---0-|-0-0-2-3-2-0---|-----------------|
-|---7-9-7---------|-6-4---------|-----2-0-|-------2-----2-|-----------------|
-|-7-----7---------|---4---------|-------0-|-------2-------|-----------------|
-|-----------------|---0---------|-------2-|-------0---0---|-----------------|
-|-----------------|-------------|---------|---------------|-----------------|
-|-------------|-----------|---------|-----------------|---------------------|
-|-7-7-7h8-7-5-|-3-3-3h5-3-|-3-2---0-|-0-0-2-3-2-0-----|---------------------|
-|-7---------6-|-4---------|-----2-0-|-------2-----2---|---------------------|
-|-7-----------|-4---------|-------0-|-------2-------2-|---------------------|
-|-0-------0---|-0---------|-------2-|-------0---------|---------------------|
---------------|-----------|---------|-----------------|---------------------|


-|---------------------|---------------|------------------7-|----------------|
-|-----3-2-3-5-7-------|-----3-2-3-5-7-|-----3-2-3-5-7----7-|----------------|
-|-----4-------7-7-6-7-|-----4-------7-|-----4-------7-/7---|----------------|
-|---0---------0-------|---0---------7-|---0---------7------|----------------|
-|-------0-------------|-------0-------|-------0------------|----------------|
-|-3-------------------|-3-------------|-3------------------|----------------|

[ Tab from: http://www.guitartabs.cc/tabs/p/pillows/sincere_note_tab.html ]
-|---------------------|-------------|----------------------------------------|
-|-----8-7-8-7---5h7-5-|-5-----------|----------------------------------------|
-|-----7-------7-7---7-|---7---7---7-|----------------------------------------|
-|---0-----------------|-----7---7---|----------------------------------------|
-|---------------------|-------------|----------------------------------------|
-|-3-------------------|-------------|----------------------------------------|
-|---------------|-----------------|-----------------|------------------------|
-|-----7-5-5h7---|---------------3-|-----------------|------------------------|
-|-----7-------7-|-7-6-4-4-----4-4-|-4-4-6-7-6-------|------------------------|
-|---0---------0-|-----------0---0-|-------0---9-7---|------------------------|
-|-0-----0-------|-----------------|-----------0---7-|------------------------|
-|-------------7-|---------3-------|-----------------|------------------------|


-|---------------|---------|-----------|---------------------|-----------------|
-|-----7-5-5h7---|-------7-|-----------|---------------------|-----------------|
-|-----7-------7-|-7-7-6---|-7-6-4-4---|-4-4-6-7--6--4-6-7-7-|-----------------|
-|---0---------0-|---------|-----------|-------------------0-|-----------------|
-|-0-----0-------|---------|-------2--2|-------0-------------|-----------------|
-|-------------7-|---------|-------3-3-|---------------------|-----------------|


-|-----------------|---------------------------------------------------------|
-|-----8-7-------7-|---------------------------------------------------------|
-|---7-----7-----7-|---------------------------------------------------------|
-|-7---------7-0-0-|---------------------------------------------------------|
-|-----------------|---------------------------------------------------------|
-|-----------------|---------------------------------------------------------|
this song is very complitcating...but with practice you can play it like a pro...
good luck...okies ^-^
Comments