Pillows - Runner's High Chords & Tabs

 

Runner's High Chords & Tabs

Pillows Chords & Tabs

Version: 1 Type: Bass Tab 0 ratings
1 star 2 stars 3 stars 4 stars 5 stars
comments

Runner's High Bass Tab

#----------------------------------PLEASE NOTE-----------------------------#
#This bass tab is the author's own work and represents their interpretation#
#of the song. You may only use this file for private study, scholarship, or# 
#research.-----------------------------------------------------------------#

Artist: The Pillows
Album: Runners High
Title: Runners High
Tuning: Standard Tuning
Tabbed by Ragamuffin (peace_sells_@hotmail.com)


Riff 1
G|-----------------------------------------|
D|-5-5-2-2-2-------------------------------|
A|-----------5-5---5-5-3-3-3-5-5-5---------|
E|---------------5-----------------3-3-3-3-|
[ Tab from: http://www.guitartabs.cc/tabs/p/pillows/runners_high_btab.html ]
G|------------------------------------------------------------|
D|---------------------------------------------2-2-2-2-2-2-2--|
A|-3-3-3-3-3-3-3----------------------------------------------|
E|-----------------3-3-3-3-3-3-3-5-5-5-5-5-5-5----------------|


Riff 2
G|-------------------------------------------------------|
D|-------------------------------------------------------|
A|-3-(play like 16 times)-5-(play like 13 times)---------|
E|-------------------------------------------------------|

How to play:
Riff 1 x4
Riff 2 x1
Riff 1 x4
Riff 2 x1
Riff 1 x2
Break
Riff 1 x6
Well there's not 100% correct, because i didn't tab some fills but i do't think you
have problems to play it alone, with a band or over the song. If you think i missed
a part mail me. Ok, just enjoy this funny song and keep the four strings Loud!
Comments