Pillows - Ride On Shooting Star Chords & Tabs

 

Ride On Shooting Star Chords & Tabs

Pillows Chords & Tabs

Version: 4 Type: Tab

Ride On Shooting Star Tab

   
Ride on Shooting Star- the pillows
This is the Rythmn Guitar part played by Yamanaka (tabbed for a friend)
So it will be different than the main riff you'd expect to hear.

 [Intro 1]
|----------------------|
|----------------------|
|----------------------| repeat 7 times 
|-5-5-5-5-X-5-5-5-5-X--|
|-4-4-4-4-X-4-4-4-4-X--|
|-5-5-5-5-X-5-5-5-5-X--|

|----------------------|
|----------------------|
|----------------------|
|-5-5-5-5-5-5-5-5-5-5-|
|-4-4-4-4-4-4-4-4-4-4-|
|-5-5-5-5-5-5-5-5-5-5-|
[A]
V: Palm muting  STARTS
|-----------------------------------------------------------------|
|-----------------------------------------------------------------|
|-----------------------------------------------------------------|
|---------------------------------4-4-4-4-4-4-4-4-----------------|
|-5-5-5-5-5-5-5-5-4-4-4-4-4-4-4-4-2-2-2-2-2-2-2-2-2-2-2-2-2-2-2-2-|
|-3-3-3-3-3-3-3-3-2-2-2-2-2-2-2-2-----------------0-0-0-0-0-0-0-0-|

_Palm muting ENDS________________________V
|-----------------------------------------------------------------|
|-----------------------------------------------------------------|
|------------------------------------------7-7-7-7----------------|
|---------------------------------7-7-7-7--7-7-7-7--9-9--9--9-----|
|-5-5-5-5-5-5-5-5-7-7-7-7-7-7-7-7-5-5-5-5--5-5-5-5-9-9--9--9-----|
|-3-3-3-3-3-3-3-3-5-5-5-5-5-5-5-5-------------------7-7--7--7-----|
[Chorus] 
|-----------------------------------------------------------------|
|--------------------7---7-7-7------------------------------------|
|-------------7------7---7-7-7--9-9-9-9-9-9-----------------------|
|-5-5-5-5-5-5-7--9-7-7---7-7-7--9-9-9-9-9-9-8-9-9-9-9-9-9-9-9-----|
|-5-5-5-5-5-5-5--9-7-5---5-5-5--7-7-7-7-7-7-8-9-9-9-9-9-9-9-9-----|
|-3-3-3-3-3-3----7-5------------------------6-7-7-7-7-7-7-7-7-----|

|-----------------------------------------------------------------|
|--------------------7---7-7-7------------------------------------|
|-------------7------7---7-7-7--9-9-9-9-9-9-----------------------|
|-5-5-5-5-5-5-7--9-7-7---7-7-7--9-9-9-9-9-9-8-9-9-9-9-9-9-9-9-----|
|-5-5-5-5-5-5-5--9-7-5---5-5-5--7-7-7-7-7-7-8-9-9-9-9-9-9-9-9-----|
|-3-3-3-3-3-3----7-5------------------------6-7-7-7-7-7-7-7-7-----|
[Intro 2]
|------------------------------------|
|-7-7--7-7-7-7-----------------------|
|-7-7--7-7-7-7-7-7-7-7--7-7-7-7------| repeat 5 times
|-5-5--5-5-5-5-7-7-7-7--7-7-7-7------|
|--------------5-5-5-5--5-5-5-5------|
[B]
|------------------------------------|
|------------------------------------|
|-7-7--7-7-7-7-----------------------|
|-7-7--7-7-7-7-7-7-7-7--7-7-7-7--7-7-|
|-5-5--5-5-5-5-7-7-7-7--7-7-7-7--7-7-|
|--------------5-5-5-5--5-5-5-5--5-5-|

[ Tab from: http://www.guitartabs.cc/tabs/p/pillows/ride_on_shooting_star_tab_ver_4.html ]
[A] Repeated
V: Palm muting  STARTS
|-----------------------------------------------------------------|
|-----------------------------------------------------------------|
|-----------------------------------------------------------------|
|---------------------------------4-4-4-4-4-4-4-4-----------------|
|-5-5-5-5-5-5-5-5-4-4-4-4-4-4-4-4-2-2-2-2-2-2-2-2-2-2-2-2-2-2-2-2-|
|-3-3-3-3-3-3-3-3-2-2-2-2-2-2-2-2-----------------0-0-0-0-0-0-0-0-|

_Palm muting ENDS________________________V
|-----------------------------------------------------------------|
|-----------------------------------------------------------------|
|------------------------------------------7-7-7-7----------------|
|---------------------------------7-7-7-7--7-7-7-7--9-9--9--9-----|
|-5-5-5-5-5-5-5-5-7-7-7-7-7-7-7-7-5-5-5-5--5-5-5-5-9-9--9--9-----|
|-3-3-3-3-3-3-3-3-5-5-5-5-5-5-5-5-------------------7-7--7--7-----|
[Chorus]
|-----------------------------------------------------------------|
|--------------------7---7-7-7------------------------------------|
|-------------7------7---7-7-7--9-9-9-9-9-9-----------------------|
|-5-5-5-5-5-5-7--9-7-7---7-7-7--9-9-9-9-9-9-8-9-9-9-9-9-9-9-9-----|
|-5-5-5-5-5-5-5--9-7-5---5-5-5--7-7-7-7-7-7-8-9-9-9-9-9-9-9-9-----|
|-3-3-3-3-3-3----7-5------------------------6-7-7-7-7-7-7-7-7-----|

|-----------------------------------------------------------------|
|--------------------7---7-7-7------------------------------------|
|-------------7------7---7-7-7--9-9-9-9-9-9-----------------------|
|-5-5-5-5-5-5-7--9-7-7---7-7-7--9-9-9-9-9-9-8-9-9-9-9-9-9-9-9-----|
|-5-5-5-5-5-5-5--9-7-5---5-5-5--7-7-7-7-7-7-8-9-9-9-9-9-9-9-9-----|
|-3-3-3-3-3-3----7-5------------------------6-7-7-7-7-7-7-7-7-----|
[BE-BEEP,BE-BEEP,yeah]
|-----------------------------------------------------------------|
|-----------------------------------------------------------------|
|---------------7-------------------------------------------------|
|-10-10--10-10--7-------------------------------------------------|
|-10-10--10-10--5-------------------------------------------------|
|--8--8---8--8----------------------------------------------------|

[outro]
|------------------------------------|
|------------------------------------|
|-7-7--7-7-7-7-----------------------|
|-7-7--7-7-7-7-7-7-7-7--7-7-7-7------|
|-5-5--5-5-5-5-7-7-7-7--7-7-7-7------|
|--------------5-5-5-5--5-5-5-5------|

|------------------------------------|
|------------------------------------|
|-7-7--7-7-7-7-----------------------|
|-7-7--7-7-7-7-7-7-7-7--7-7-7-7------|
|-5-5--5-5-5-5-7-7-7-7--7-7-7-7------|
|--------------5-5-5-5--5-5-5-5------|

|-----------------------------------------------------------------|
|-----------------------------------------------------------------|
|-7-7--7-7-7-7----------------------------------------------------|
|-7-7--7-7-7-7-7-7-7-7--7-7-7-7----7-7-7--------------------------|
|-5-5--5-5-5-5-7-7-7-7--7-7-7-7----------4-4/5--------------------|
|--------------5-5-5-5--5-5-5-5-----------------------------------|

If there are any major mistakes, message me about it at rickenbackerazn@yahoo.com