Pillows - Little Busters Chords & Tabs

 

Little Busters Chords & Tabs

Pillows Chords & Tabs

Version: 1 Type: Tab 0 ratings
1 star 2 stars 3 stars 4 stars 5 stars
comments

Little Busters Tab

   
Song: Little Busters
Artist: The Pillows
Album: FLCL OST 1 - Addict
Tabbed By: Shinkoshi Raigaa

Standard tuning

GUitar 1 (only part I can really do Unless I Had 4 arms)

Main Riff
Chords = C    G        F
|------0-0---3-3-3--1-1-1-1-1--------|
|------1-1---0-0-0--1-1-1-1-1--------|
|------0-0---0-0-0--2-2-2-2-2--------|
|------2-2---0-0-0--3-3-3-3-3--------|
|------3-3---2-2-2--3-3-3-3-3--------|
|------0-0---3-3-3--0-0-0-0-0--------| 
          Do this for a while then-

|------0-0---3-3-3-----------------------|-----------|
|------1-1---0-0-0-----------------------|-----------|
|------0-0---0-0-0--2-2-2----------------|-----------|
|------2-2---0-0-0--2-2-2-5-5-5-3-3--3-3-|-2---------|
|------3-3---2-2-2--0-0-0-5-5-5-3-3--3-3-|-3---------|
|------0-0---3-3-3--------3-3-3-1-1--1-1-|-0---------| 
          Well actually it only does that last 
          little chord before the verse
[ Tab from: http://www.guitartabs.cc/tabs/p/pillows/little_busters_tab.html ]
Verse Part (I guess)
-------------------------------------------|---------------------|
-------------------------------------------|---------------------|
------------2-2-2-2-2-----------5-5-5------|---------------------|
--5-5-5-5-5-2-2-2-2-2-3-3-3-3-3-5-5-5------|---3-4-5-5-----------|
--5-5-5-5-5-0-0-0-0-0-3-3-3-3-3-3-3-3------|---3-4-5-5-----------|
--3-3-3-3-3-----------1-1-1-1-1------------|---1-2-3-3-----------|
         Once again...it only does the last part
         before you go back to the Main riff
 Solo
|-----------------------------------------------/10-7-7/--12-----|
|--------------------------------------10--7-7-------------------|
|--7b^---5---5---------------------------------------------------|
|------7---7---7~----------5---5-7-7~----------------------------|
|------------------0-3-5-7---7-----------------------------------|
|----------------------------------------------------------------|

|------------------------------/12~~--15~------------------------|
|----------------------8---8-------------------------------------|
|----5-7p5---5-7-5-7/9---9---9-----------------------------------|
|--7-------7-----------------------------------------------------|
|----------------------------------------------------------------|
|----------------------------------------------------------------|
Comments