Pillows - Last Dinosaur Chords & Tabs

 

Last Dinosaur Chords & Tabs

Pillows Chords & Tabs

Version: 3 Type: Tab 0 ratings
1 star 2 stars 3 stars 4 stars 5 stars
comments

Last Dinosaur Tab

   
V   Vibrato
^   Bend
/   slide
h   hammer
p   pull
/ \ slide down and up the neck
T   Tremelo pick
~   Let Ring
X   Mute


intro   gutiar 2
e|---0---0--0---0----0---0--0--00----------|
b|-----3------3---3----3------3------------|
g|--2-----2---------0-----0----------------|
d|-----------------------------------------|
a|-----------------------------------------|
E|-----------------------------------------|

gutiar 1 rythm (x4)
e|-----------------------------------------|
b|-----------------------------------------|
g|2222222222-33333333333-------------------|
d|3333333333-33333333333-------------------|
a|3333333333-55555555555-------------------|
E|1111111111-------------------------------|

verse
e|-----------------------------------------|
b|-----------------------------------------|
g|2222222222-33333333333-------------------|
d|3333333333-33333333333-------------------|
a|3333333333-55555555555-------------------|
E|1111111111-------------------------------|

e|-----------------------------------------|
b|-----------------------------------------|
g|2222222222-11111111111-------------------|
d|3333333333-22222222222-------------------|
a|3333333333-22222222222-------------------|
E|1111111111-00000000000-------------------|

e|-----------------------------------------|
b|-----------33333333333-------------------|
g|2222222222-33333333333-------------------|
d|3333333333-33333333333-------------------|
a|3333333333-55555555555-------------------|
E|1111111111-------------------------------|

e|-----------------------------------------|
b|--------------2222222222-----------------|
g|-777777777----2222222222-----------------|
d|-777777777----2222222222-----------------|
a|-555555555----0000000000-----------------|
E|-----------------------------------------|

 gutiar 2
e|-5555-55-55--55---------------------------|
b|-4444-44-44--55---------------------------|
g|-7777-77-77--66---------------------------|
d|-7777--------77---------------------------|
a|-5555--------77---------------------------|
E|-------------55---------------------------|
[ Tab from: http://www.guitartabs.cc/tabs/p/pillows/last_dinosaur_tab_ver_3.html ]
chorus
e|----------------------------------------------|
b|----------------------------------------------|
g|-3333333333--4444444444--22222222222222222222-|
d|-3333333333--3333333333--33333333333333333333-|
a|-5555555555--3333333333--33333333333333333333-|
E|-------------5555555555--11111111111111111111-|

gutiar 1 rythm (x2)
e|-----------------------------------------|
b|-----------------------------------------|
g|2222222222-33333333333-------------------|
d|3333333333-33333333333-------------------|
a|3333333333-55555555555-------------------|
E|1111111111-------------------------------|

back into verse.
then chorus

Solo Tremelo pickinng
e|-/15-13-12-13-15--13-12-15-17-15-13-12-13--12-10-8/7\8-10-|
b|----------------------------------------------------------|
g|-/12-10-9--10-12--10-9--12/14/12-10-9--10--9--7--5/4\5-7--|
d|----------------------------------------------------------|
a|----------------------------------------------------------|
E|----------------------------------------------------------|

e|---------------------------------------------------------------------|
b|------------------------888-666-5---5--------------------------------|
g|-------------------/9V--999-777-5-7-5-7-9-7----5-7-9/19V 7-5-7-9/19V-|
d|-/7V-10-12-10-12-10------------------------/14V----------------------|
a|---------------------------------------------------------------------|
E|---------------------------------------------------------------------|


e|----------------------------------------|
b|----------------------------------------|
g|-5-7-9/19V 7-5-7-9/19V------------------|
d|----------------------------------------|
a|----------------------------------------|
E|----------------------------------------|

after the last chorus play the intro again
last chord played at the end of the song
            Cmaj  w/slight feedback
e|-0~----------------------------------------|
b|-1~----------------------------------------|
g|-0~----------------------------------------|
d|-2~----------------------------------------|
a|-3~----------------------------------------|
E|-------------------------------------------|
Comments