Pillows - Crazy Sunshine Chords & Tabs

 

Crazy Sunshine Chords & Tabs

Pillows Chords & Tabs

Version: 1 Type: Bass Tab 0 ratings
1 star 2 stars 3 stars 4 stars 5 stars
comments

Crazy Sunshine Bass Tab

The Pillows
Crazy Sunshine
Standard Tuning (EADG)
Tabbed by Alex Fragd - mavrick_45@mindless.com


G---------------------------------------------------7-6-------
D-------------------------------------------------------7-----
A-------------55555-------------55555-------------5-------5---
E---5555555-----------5555555-----------5555555---------------

	G------------------------
	D------------------------
	A-------------55555555---
	E---5555555--------------


G---------------------------------------------------------------------
D---------------------------------------------------------------------
A------------------------------------55555555-------------------------
E---55555555---00000000---22222222--------------55555555---00000000---

	G---------------------------------------------------------
	D---------------------------------------------------------
	A--------------555-555------------------------------------
	E---22222222-------------55555555---00000000---22222222---
	
	G-----------------------------------------------
	D-----------------------------------------------
	A---55555555------------------------------------
	E--------------55555555---00000000---22222222---

	G----------------------------------------
	D----------------------------------------
	A---55555555-----------------------------
	E--------------000000000000-/-12-12-12---


G------------------------------------------------
D------------------------------------------------
A----------5---4---2-----------------------------
E---2---2/-------------222222222222-/-14-14-14---


G-------------------------------------------------------------
D--------------------------------00000000---------------------
A---00000000-00000000-00000000--------------------------------
E-------------------------------------------1-1-3-555-555---

	G----------------------------------
	D----------------------------------
	A-----------------------12-11------
	E---00000000-/-12-12-12-------12---

G-------------------------------------------------------------
D--------------------------------00000000---------------------
A---00000000-00000000-00000000--------------------------------
E-------------------------------------------1-1-3-555-555---

G-----------------------------------
D-----------------------------------
A-----------------------5---5---5---
E---00000000-00000000---------------


G---------------------------------------------------7-6-------
D-------------------------------------------------------7-----
A-------------55555-------------55555-------------5-------5---
E---5555555-----------5555555-----------5555555---------------

	G------------------------
	D------------------------
	A-------------55555555---
	E---5555555--------------


G---------------------------------------------------------------------
D---------------------------------------------------------------------
A------------------------------------55555555-------------------------
E---55555555---00000000---22222222--------------55555555---00000000---
[ Tab from: http://www.guitartabs.cc/tabs/p/pillows/crazy_sunshine_btab.html ]
	G---------------------------------------------------------
	D---------------------------------------------------------
	A--------------555-555------------------------------------
	E---22222222-------------55555555---00000000---22222222---
	
	G-----------------------------------------------
	D-----------------------------------------------
	A---55555555------------------------------------
	E--------------55555555---00000000---22222222---

	G----------------------------------------
	D----------------------------------------
	A---55555555-----------------------------
	E--------------000000000000-/-12-12-12---


G------------------------------------------------
D------------------------------------------------
A----------5---4---2-----------------------------
E---2---2/-------------222222222222-/-14-14-14---


G-------------------------------------------------------------
D--------------------------------00000000---------------------
A---00000000-00000000-00000000--------------------------------
E-------------------------------------------1-1-3-555-555---

	G----------------------------------
	D----------------------------------
	A-----------------------12-11------
	E---00000000-/-12-12-12-------12---

G-------------------------------------------------------------
D--------------------------------00000000---3-3---------------
A---00000000-00000000-00000000--------------------------------
E-----------------------------------------------3-555-555---

G-----------------------------------
D-----------------------------------
A-----------------------5---5---5---
E---00000000-00000000---------------



G---------------------------------------------------------------------
D---------------------------------------------------------------------
A------------------------------------55555555-------------------------
E---55555555---00000000---22222222--------------55555555---00000000---

G------------------------
D------------------------
A--------------555-555---
E---22222222-------------


G-------------------9-----------------------7-6-------------------
D---------7-----------9-----------4-------------7---7---7-----7---
A-------7---5-6-777-----7-------4---4-5555-------5---5-----7-----
E---555---------------------222---------------------------5-------

	G-----------------------------------
	D-------222--------4----------------
	A----------------4---4-55555---5---
	E---000------222--------------5-----

	G--------------------------
	D--------------------------   > = repeat note
	A--------------------------
	E---0>-/12\-0>-/12-12-12---



G-------------------------------------------------------------
D--------------------------------00000000---------------------
A---00000000-00000000-00000000--------------------------------
E-------------------------------------------1-1-3-555-555---

	G----------------------------------
	D----------------------------------
	A-----------------------12-11------
	E---00000000-/-12-12-12-------12---

G-------------------------------------------------------------
D--------------------------------00000000---3-3---------------
A---00000000-00000000-00000000--------------------------------
E-----------------------------------------------3-555-555---

G-----------------------------------
D-----------------------------------
A-----------------------5---5---5---
E---00000000-00000000---------------


G-------------------------------7-6--------------------------
D-----------------------------------7------------------------
A-------------55555-----------5-------5--------------55555---
E---5555555-----------5555555--------------5555555-----------

	G-------------7---
	D-------------7---
	A-------------5---
	E---5555555-------
Comments