Pillows - Black Sheep Chords & Tabs

 

Black Sheep Chords & Tabs

Pillows Chords & Tabs

Version: 1 Type: Tab 0 ratings
1 star 2 stars 3 stars 4 stars 5 stars
comments

Black Sheep Tab

***********************************
*Band: the pillows    		  *
*Song: Black Sheep                *
*Album: Little Busters            *
*Release: 1998		          *
***********************************
--------------------------------------------
|Tabbed by: NardDude [narddude@hotmail.com]|
|Date: 2003-07-14                          |
--------------------------------------------

Notes:
This is a beautiful acoustic piece by the pillows and it's
very simple to play. I don't have the exact strum pattern
but I tried my best to give you an idea of how the strum
the chords. Just add some scratches and things like that
until it sounds right, but the basic pattern is there.

Enjoy! (and if there are any corrections, please email them
to me at the address above. Thanks a lot!)

Symbols:

h   - hammer on
p   - pull off
:   - let ring
/   - slide up
\   - slide down
x   - scratch
P.M - palm mute

~~~~~~~~~~~~~~~~~~~~~~~~~~~

[VERSE 1]

e -0--0-0--0--0-0--1------1--1-1-1-|-0--0-0--0--0-0--1--1--------------|
b -1--1-1--0--0-0----1----1--1-1-1-|-1--1-1--0--0-0--1--1--------------|
g -0--0-0--0--0-0------2--2--2-2-2-|-0--0-0--0--0-0--2--2--0h2-0---0---|
d -2--2-2--2--2-2------------3-3-3-|-2--2-2--2--2-2--3--3--3-----3-----|
a -3--3-3--2--2-2------------3-3-3-|-3--3-3--2--2-2--3--3--------------|
e ---------0--0-0------------1-1-1-|---------0--0-0--1--1--------------|

e -0--0-0--0--0-0-------1----1-1-1-|-0--0-0--0--0-0--1--1--------------|
b -1--1-1--0--0-0---1--------1-1-1-|-1--1-1--0--0-0--1--1--------------|
g -0--0-0--0--0-0-----2------2-2-2-|-0--0-0--0--0-0--2--2--0h2-0-2-0---|
d -2--2-2--2--2-2-3----------3-3-3-|-2--2-2--2--2-2--3--3--3-----------|
a -3--3-3--2--2-2---------3--3-3-3-|-3--3-3--2--2-2--3--3--------------|
e ---------0--0-0---------1--1-1-1-|---------0--0-0--1--1--------------|

e -0--0-0--0--0-0--1------1--1-1-1-|-0--0-0--0--0-0--1--1--------------|
b -1--1-1--0--0-0----1----1--1-1-1-|-1--1-1--0--0-0--1--1--------------|
g -0--0-0--0--0-0------2--2--2-2-2-|-0--0-0--0--0-0--2--2--0h2-0---0---|
d -2--2-2--2--2-2------------3-3-3-|-2--2-2--2--2-2--3--3--3-----3-----|
a -3--3-3--2--2-2------------3-3-3-|-3--3-3--2--2-2--3--3--------------|
e ---------0--0-0------------1-1-1-|---------0--0-0--1--1--------------|

e -0--0-0--0--0-0-------1----------|-0--0-0--0--0-0--1--1--------------|
b -1--1-1--0--0-0---1--------------|-1--1-1--0--0-0--1--1--------------|
g -0--0-0--0--0-0-----2------------|-0--0-0--0--0-0--2--2--0h2-0-2-0---|
d -2--2-2--2--2-2-3----------------|-2--2-2--2--2-2--3--3--3-----------|
a -3--3-3--2--2-2------------------|-3--3-3--2--2-2--3--3--------------|
e ---------0--0-0------------------|---------0--0-0--1--1--------------|

e -0--0-0--0--0-0--1--1--------------|
b -1--1-1--0--0-0--1--1--------------|
g -0--0-0--0--0-0--2--2--0h2-0---0---|
d -2--2-2--2--2-2--3--3--3-----3-----|
a -3--3-3--2--2-2--3--3--------------|
e ---------0--0-0--1--1--------------|

[CHORUS]

e -0-0-0-0-00--0-0-0-0-00--|-1-1-1-1-11--0-0-00-0-0-0-0--|
b -1-1-1-1-11--0-0-0-0-00--|-1-1-1-1-11--1-1-11-3-1-0-1--|
g -2-2-2-2-22--0-0-0-0-00--|-2-2-2-2-22--0-0-00-0-0-0-0--|
d -2-2-2-2-22--2-2-2-2-22--|-3-3-3-3-33--2-2-22-2-2-2-2--|
a -0-0-0-0-00--2-2-2-2-22--|-3-3-3-3-33--3-3-33-3-3-3-3--|
e -------------0-0-0-0-00--|-1-1-1-1-11------------------|
[ Tab from: http://www.guitartabs.cc/tabs/p/pillows/black_sheep_tab.html ]
e -0-0-0-0-00--0-0-0-0-00--|-1-1-1-1-11--3---------------|
b -1-1-1-1-11--0-0-0-0-00--|-1-1-1-1-11--3--1--0--1--3---|
g -2-2-2-2-22--0-0-0-0-00--|-2-2-2-2-22--0---------------|
d -2-2-2-2-22--2-2-2-2-22--|-3-3-3-3-33--0---------------|
a -0-0-0-0-00--2-2-2-2-22--|-3-3-3-3-33--2---------------|
e -------------0-0-0-0-00--|-1-1-1-1-11--3---------------|

[VERSE 2]

e -0--0-0--0--0-0--1------1--1-1-1-|-0--0-0--0--0-0--1--1--------------|
b -1--1-1--0--0-0----1----1--1-1-1-|-1--1-1--0--0-0--1--1--------------|
g -0--0-0--0--0-0------2--2--2-2-2-|-0--0-0--0--0-0--2--2--0h2-0---0---|
d -2--2-2--2--2-2------------3-3-3-|-2--2-2--2--2-2--3--3--3-----3-----|
a -3--3-3--2--2-2------------3-3-3-|-3--3-3--2--2-2--3--3--------------|
e ---------0--0-0------------1-1-1-|---------0--0-0--1--1--------------|

e -0--0-0--0--0-0-------1----------|-0--0-0--0--0-0--1--1--------------|
b -1--1-1--0--0-0---1--------------|-1--1-1--0--0-0--1--1--------------|
g -0--0-0--0--0-0-----2------------|-0--0-0--0--0-0--2--2--0h2-0-2-0---|
d -2--2-2--2--2-2-3----------------|-2--2-2--2--2-2--3--3--3-----------|
a -3--3-3--2--2-2------------------|-3--3-3--2--2-2--3--3--------------|
e ---------0--0-0------------------|---------0--0-0--1--1--------------|

e -0--0-0--0--0-0--1--1-------------1--|
b -1--1-1--0--0-0--1--1-------------1--|
g -0--0-0--0--0-0--2--2--0h2-0---0--2--|
d -2--2-2--2--2-2--3--3--3-----3----0--|
a -3--3-3--2--2-2--3--3----------------|
e ---------0--0-0--1--1----------------|


[CHORUS]

e -0-0-0-0-00--0-0-0-0-00--|-1-1-1-1-11--0-0-00-0-0-0-0--|
b -1-1-1-1-11--0-0-0-0-00--|-1-1-1-1-11--1-1-11-3-1-0-1--|
g -2-2-2-2-22--0-0-0-0-00--|-2-2-2-2-22--0-0-00-0-0-0-0--|
d -2-2-2-2-22--2-2-2-2-22--|-3-3-3-3-33--2-2-22-2-2-2-2--|
a -0-0-0-0-00--2-2-2-2-22--|-3-3-3-3-33--3-3-33-3-3-3-3--|
e -------------0-0-0-0-00--|-1-1-1-1-11------------------|

e -0-0-0-0-00--0-0-0-0-00--|-1-1-1-1-11--3--3------------|
b -1-1-1-1-11--0-0-0-0-00--|-1-1-1-1-11--3--3--0--1--3---|
g -2-2-2-2-22--0-0-0-0-00--|-2-2-2-2-22--0--0------------|
d -2-2-2-2-22--2-2-2-2-22--|-3-3-3-3-33--0--0------------|
a -0-0-0-0-00--2-2-2-2-22--|-3-3-3-3-33--2--2------------|
e -------------0-0-0-0-00--|-1-1-1-1-11--3--3------------|

e ----/3----\1---0--1-------|
b ---------------1-----3--1-|
g --------0---0-------------|
d -/5-----------------------|
a --------------------------|
e --------------------------|

[OUTRO]

e -0--0-0--0--0-0--1------1--1-1-1-|-0--0-0--0--0-0--1--1--------------|
b -1--1-1--0--0-0----1----1--1-1-1-|-1--1-1--0--0-0--1--1--------------|
g -0--0-0--0--0-0------2--2--2-2-2-|-0--0-0--0--0-0--2--2--0h2-0---0---|
d -2--2-2--2--2-2------------3-3-3-|-2--2-2--2--2-2--3--3--3-----3-----|
a -3--3-3--2--2-2------------3-3-3-|-3--3-3--2--2-2--3--3--------------|
e ---------0--0-0------------1-1-1-|---------0--0-0--1--1--------------|

e -0--0-0--0--0-0-------1----------|-0--0-0--0--0-0--1--1--------------|
b -1--1-1--0--0-0---1--------------|-1--1-1--0--0-0--1--1--------------|
g -0--0-0--0--0-0-----2------------|-0--0-0--0--0-0--2--2--0h2-0-2-0---|
d -2--2-2--2--2-2-3----------------|-2--2-2--2--2-2--3--3--3-----------|
a -3--3-3--2--2-2------------------|-3--3-3--2--2-2--3--3--------------|
e ---------0--0-0------------------|---------0--0-0--1--1--------------|

e -1-1-11--3-3-33-----------0:-----|
b -1-1-11--3-3-33------3----1:-----|
g -2-2-22--0-0-00----2------0:-----|
d -3-3-33--0-0-00--3--------2:-----|
a -3-3-33--2-2-22-----------3:-----|
e -1-1-11--3-3-33------------------|
Comments