Pillows - Biscuit Hammer Chords & Tabs

 

Biscuit Hammer Chords & Tabs

Pillows Chords & Tabs

Version: 1 Type: Tab 0 ratings
1 star 2 stars 3 stars 4 stars 5 stars
comments

Biscuit Hammer Tab

#----------------------------------PLEASE NOTE---------------------------------#
#This file is the author's own work and represents their interpretation of the #
#song. You may only use this file for private study, scholarship, or research. #
#------------------------------------------------------------------------------#

BISCUIT HAMMER
As recorded by The Pillows



Transcribed by Froscious

 Music by The Pillows

 


 4/4

Intro guitar part

  Gtr I
|------------------------------------|
|------------------------------------|
|-2-2-------------2-2-------2-5-5----|
|-2-2--------2-5--2-2-------2-5-5----|
|-0-0-3-5--5------0-0-3-5-3-0-3-3----|
|------------------------------------|


Verse 1

  Gtr I
|-----------------------------------------------------------------|
|--2---5----------------------------------------------------------|
|--2---6---------------6-6-6-7-7-7-6-6-6-----6-6------------------|
|--2---6--6-7-9--4-4-4-6-6-6-7-7-7-6-6-6-7-7-6-6-9-9-9-9-9-9-9-9--|
|--0---4---------4-4-4-4-4-4-5-5-5-4-4-4-7-7-4-4-9-9-9-9-9-9-9-9--|
|----------------2-2-2-------------------5-5-----7-7-7-7-7-7-7-7--|


  Gtr I
|-^0--------------4---5----------------------------------------------|
|-^0---2------5---5---5----------------------------------------------|
|-^1---2---/6---6---6----------6-6-6-7-7-7-6-6-6-----6-6-------------|
|-^2---2-----------------4-4-4-6-6-6-7-7-7-6-6-6-7-7-6-6-9-9-9-9-9-9-|
|-^2---0-----------------4-4-4-4-4-4-5-5-5-4-4-4-7-7-4-4-9-9-9-9-9-9-|
|-^0---------------------2-2-2-------------------5-5-----7-7-7-7-7-7-|


Chorus
[ Tab from: http://www.guitartabs.cc/tabs/p/pillows/biscuit_hammer_tab.html ]
  Gtr I
|------0-0-0-0---2-----0-----0-----4-----2-----0--2--4-|
|------0-0-0-0---3-----0-----2-----5-----3-----0--0--0-|
|------1-1-1-1---2-----1-----2-----6-----2-----1--1--1-|
|-9-9--2-2-2-2---0-----2-----2-----6-----0-----2--2--2-|
|-9-9--2-2-2-2---------2-----0-----4-----------2--2--2-|
|-7-7--0-0-0-0---------0-----------------------0--0--0-|

		  "Bisuketo Hamaaaaaaa"
  Gtr II
|------------------------------------|
|------------------------------------|
|----------------------7---9-9S10----|
|------------------7S9---9-----------|
|------------------------------------|
|------------------------------------|

second guitar part, stretched out over last "bisuketo" line
 
  Gtr III
|---------------------------------------------------|
|---------------------------------------------------|
|-------------------------------------------1--2--4-|
|---------12--11--9--7--9--7--6--7--6--4------------|
|---------------------------------------------------|
|---------------------------------------------------|

Second verse

 Gtr I
|-^0--------------4---5----------------------------------------------|
|-^0---2------5---5---5----------------------------------------------|
|-^1---2---/6---6---6----------6-6-6-7-7-7-6-6-6-----6-6-------------|
|-^2---2-----------------4-4-4-6-6-6-7-7-7-6-6-6-7-7-6-6-9-9-9-9-9-9-|
|-^2---0-----------------4-4-4-4-4-4-5-5-5-4-4-4-7-7-4-4-9-9-9-9-9-9-|
|-^0---------------------2-2-2-------------------5-5-----7-7-7-7-7-7-|

    Gtr I
|------------------------|-----------------|-----------------|-----------|
|-2----------------------|-----------------|-----------------|-----------|
|-2--6b7r6-4-6-4-2-------|-6-6-6-7-7-7-6-6-|-6-----6-6-------|-----------|
|-2----------------4-4-4-|-6-6-6-7-7-7-6-6-|-6-7-7-6-6-9-9-9-|-9-9-9-9-9-|
|-0----------------4-4-4-|-4-4-4-5-5-5-4-4-|-4-7-7-4-4-9-9-9-|-9-9-9-9-9-|
|------------------2-2-2-|-----------------|---5-5-----7-7-7-|-7-7-7-7-7-|


|-0-0-0-0----|
|-0-0-0-0----|
|-1-1-1-1----|
|-2-2-2-2----|
|-2-2-2-2----|
|-0-0-0-0----|

Solo coming soon hopefully

** Generated using Power Tab Editor by Brad Larsen: The Official Power Tab Web
Site
Comments