Pillows - Beautiful Morning With You Chords & Tabs

 

Beautiful Morning With You Chords & Tabs

Pillows Chords & Tabs

Version: 2 Type: Tab 0 ratings
1 star 2 stars 3 stars 4 stars 5 stars
comments

Beautiful Morning With You Tab

I checked out the first version and the intro was all wrong so I made
this righter version

Into
E|-----------|-----------|-----------|-----------|        
B|-----------|-----------|-----------|-----------|          
G|-----------|-----------|-----------|-----------|        
D|-4--4------|-7--7------|--2--2-----|---4--4----|2x then 
A|-5--5------|-4--4------|--2--2-----|---5--5----|        
E|-----------|-5--5------|--4--4-----|---3--3----|        

E|-----------|-----------|-----------|-----------|
B|-----------|-----------|-----------|-----------|
G|-----------|-----------|-----------|-----------|
D|-4--4------|-7--7------|-5-5-5-5---|-5-5-5-5---|
A|-5--5------|-4--4------|-5-5-5-5---|-5-5-5-5---|
E|-----------|-5--5------|-3-3-3-3---|-3-3-3-3---|

Ringing pretty part ()=harmonic
E|-(12)------|----------|-----------------------|
B|-----(7)---|----------|-----------------------|
G|--------(7)|----------|-----------------------|
D|-----------|----------|-----------------------|
A|-----------|-11b12----|--(12)--(12)-(12)-(12)-|
E|-----------|----------|(7)---(7)---(7)--(7)---|
[ Tab from: http://www.guitartabs.cc/tabs/p/pillows/beautiful_morning_with_you_tab_ver_2.html ]
  Electrified part
E|-----------|----------|-----------|-----------|
B|-----------|----------|-----------|-----------|
G|-----------|----------|-----------|-----------|
D|-4--5/9--7-|-4/5-5-5--|-5-5-5-5---|-reapeat 3x|
A|-5--5/9--7-|-4/5-5-5--|-5-5-5-5---|-----------|
E|-3--3/7--5-|-2/3-3-3--|-3-3-3-3---|-----------|
                                                       Bend thing
E|-----------|------------|-----------|-----------| |--9b10-9b10-9b10-9b10-|
B|-----------|------------|-----------|-----------| |--9b10-9b10-9b10-9b10-|
G|-----------|------------|-----------|-----------| |----------------------|
D|-5/7---4-5-|-5-5/7--4-5-|-5-5/7-7-7-|-7-7-7-7\--| |----------------------|
A|-5/7---4-5-|-5-5/7--4-5-|-5-5/7-7-7-|-7-7-7-7\--| |----------------------|
E|-3/5---2-3-|-3-3/5--2-3-|-3-3/5-5-5-|-5-5-5-5\--| |----------------------|

  Electricfied open chords
E|-3-3--3-3-3-3-|-2-2--2-2-2-2-|-0-0--0-0-0-0-|-2-2--2-2-2-2-|
B|-3-3--3-3-3-3-|-3-3--3-3-3-3-|-0-0--0-0-0-0-|-3-3--3-3-3-3-|
G|-0-0--0-0-0-0-|-2-2--2-2-2-2-|-0-0--0-0-0-0-|-2-2--2-2-2-2-|
D|-0-0--0-0-0-0-|-0-0--0-0-0-0-|-2-2--2-2-2-2-|-0-0--0-0-0-0-|
A|-2-2--2-2-2-2-|--------------|-2-2--2-2-2-2-|--------------|
E|-3-3--3-3-3-3-|--------------|--------------|--------------|
Comments