Pillows - Back Seat Dog Chords & Tabs

 

Back Seat Dog Chords & Tabs

Pillows Chords & Tabs

Version: 1 Type: Tab 0 ratings
1 star 2 stars 3 stars 4 stars 5 stars
comments

Back Seat Dog Tab

   
      -------------
   .::Back Seat Dog::.
      -------------

Band: The Pillows
Song: Back Seat Dog
Album: Happy Bivouac
Tabbed By: Synix09 (Chris Le)
Email: synix09@hotmail.com

Feel free to email me comments and corrections at synix09@hotmail.com

Key:
\ = Slide Down
/ = Slide Up
: = Let Ring
b = Bend
x = Mute
pm = Palm Mute


{Intro}

Guitar 1
E|-----------------------------------|---------------------------------|
B|-----------------------------------|---------------------------------|
G|x-x-11-x-x-11-x-11-x-x-9-x-x-9-9:--|x-x-7-x-x-7-x-7-x-x-12-x-x-12-12:|
D|-----------------------------------|---------------------------------|
A|x-x-9--x-x-9--x-9--x-x-7-x-x-7-7:--|x-x-5-x-x-5-x-5-x-x-10-x-x-10-10:|
E|-----------------------------------|---------------------------------|

Guitar 2
E|--------------------------------|--------------------------------|
B|--------------------------------|--------------------------------|
G|--------------------------------|--------------------------------|
D|------4457----------------------|--------------------------------|
A|3\5-55--------------------------|--------------------------------|
E|----------------5/4\5/4\5-------|5\7-777\9\10/--------3/2\3/2\3--|

==========================================================================

Guitar 1
E|------------------------------------|---------------------------------|
B|------------------------------------|---------------------------------|
G|x-x-11-x--x-11-x-11-x-x-9-x-x-9-9:--|x-x-7-x-x-7-x-7-x-x-12-x-x-12-12:|
D|------------------------------------|---------------------------------|
A|x-x-9--x--x-9--x-9--x-x-7-x-x-7-7:--|x-x-5-x-x-5-x-5-x-x-10-x-x-10-10:|
E|------------------------------------|---------------------------------|

Guitar 2
E|--------------------------------|--------------------------------|
B|--------------------------------|--------------------------------|
G|--------------------------------|--------------------------------|
D|---4---4457---------------------|--------------------------------|
A|5h7-5---------------------------|--------------------------------|
E|----------------5/4\5/4\5-------|7-7-7-7-7\9\10/------3/2\3/2\3--|

==========================================================================

{Verse 1}

Guitar 1
E|------------------------------------|-----------------------------------|
B|------------------------------------|-----------------------------------|
G|x-x-11-x-x-11-11-11-x-x-9-x-x-9-9-9-|x-x-7-x-x-7-7-7-x-x-12-x-x-12-12-12|
D|------------------------------------|-----------------------------------|
A|x-x-9--x-x-9--9--9--x-x-7-x-x-7-7-7-|x-x-5-x-x-5-5-5-x-x-10-x-x-10-10-10|
E|------------------------------------|-----------------------------------|

Guitar 2
E|--------------------------------|--------------------------------|
B|--------------------------------|--------------------------------|
G|--------------------------------|--------------------------------|
D|---4------4---------------------|--------------------------------|
A|5h7-5--5h7-5------4--7-7-5-4----|2h4h5p2-2h4h55------------------|
E|---------------5h7-5------------|---------------2\3/2\3/2\3/2\3/2|
     pm                                pm

==========================================================================

Guitar 1
E|------------------------------------|----------------------------------|
B|------------------------------------|----------------------------------|
G|x-x-11-x-x-11-11-11-x-x-9-x-x-9-9-9-|x-x-7-x-x-7-7-7-x-x-12-x-x-12-x-12|
D|------------------------------------|----------------------------------|
A|x-x-9--x-x-9--9--9--x-x-7-x-x-7-7-7-|x-x-5-x-x-5-5-5-x-x-10-x-x-10-x-10|
E|------------------------------------|----------------------------------|

Guitar 2
E|--------------------------------|--------------------------------|
B|--------------------------------|--------------------------------|
G|--------------------------------|--------------------------------|
D|---4------4---------------------|--------------------------------|
A|5h7-5--5h7-5------4--7-7-5-4----|2h4h5p2-2h4h55-------h2---------|
E|---------------5h7-5------------|------------------3h5--3----3-3-|
     pm                                pm

==========================================================================

Guitar 1
E|------------------------------------|-----------------------------------|
B|------------------------------------|-----------------------------------|
G|x-x-11-x-x-11-11-11-x-x-9-x-x-9-9-9-|x-x-7-x-x-7-7-7-x-x-12-x-x-12-12-12|
D|------------------------------------|-----------------------------------|
A|x-x-9--x-x-9--9--9--x-x-7-x-x-7-7-7-|x-x-5-x-x-5-5-5-x-x-10-x-x-10-10-10|
E|------------------------------------|-----------------------------------|

Guitar 2
E|--------------------------------|--------------------------------|
B|--------------------------------|--------------------------------|
G|--------------------------------|--------------------------------|
D|---4------4---------------------|--------------------------------|
A|5h7-5--5h7-5------4--7-7-5-4----|2h4h5p2-2h4h55------------------|
E|---------------5h7-5------------|---------------2\3/2\3/2\3/2\3/2|
     pm                                pm

==========================================================================

Guitar 1
E|------------------------------------|----------------------------------|
B|------------------------------------|----------------------------------|
G|x-x-11-x-x-11-11-11-x-x-9-x-x-9-9-9-|x-x-7-x-x-7-7-7-x-x-12-x-x-12-x-12|
D|------------------------------------|----------------------------------|
A|x-x-9--x-x-9--9--9--x-x-7-x-x-7-7-7-|x-x-5-x-x-5-5-5-x-x-10-x-x-10-x-10|
E|------------------------------------|----------------------------------|

Guitar 2
E|--------------------------------|--------------------------------|
B|--------------------------------|--------------------------------|
G|--------------------------------|--------------------------------|
D|---4------4---------------------|--------------------------------|
A|5h7-5--5h7-5------4--7-7-5-4----|2h4h5p2-2h4h55-------h2------h2-|
E|---------------5h7-5------------|------------------3h5--3--3h5--3|
     pm                                pm

==========================================================================

{Pre-Chorus}

Guitar 1
E|--------------------------------|--------------------------------|
B|--------------------------------|--------------------------------|
G|--------------------------------|----------------7:--------------|
D|4:--------------5:--------------|7:--------------7:------7:------|
A|4:--------------5:--------------|7:--------------5:------7:------|
E|2:--------------3:--------------|5:----------------------5:------|

Guitar 2
E|--------------------------------|----------------2:------0:------|
B|--------------------------------|----------------3:------2:------|
G|--------------------------------|----------------2:------2:------|
D|-----4:-------------------------|------7:--------0:------2:------|
A|--------------------------------|------------------------0:------|
E|2:---------2:---3:--------------|5:---------5:-------------------|

==========================================================================

{Chorus}

Guitar 1
E|--------------------------------|--------------------------------|
B|--------------------------------|--------------------------------|
G|--------------------------------|7---7---7---7---7---7---7---7---|
D|5---5---5---5---7---7---7---7---|7---7---7---7---7---7---7---7---|
A|5---5---5---5---7---7---7---7---|5---5---5---5---5---5---5---5---|
E|3---3---3---3---5---5---5---5---|--------------------------------|
                                                                            x3
Guitar 2
E|--------------------------------|--------------------------------|
B|-------------Guitar-2-----------|--------------------------------|
G|----------plays-something-------|-----------I-can't--------------|
D|------------here-that's---------|-----------make-it--------------|
A|------------very-light.---------|-------------out.---------------|
E|--------------------------------|--------------------------------|

==========================================================================

Guitar 1
E|--------------------------------|--------------------------------|
B|--------------------------------|--------------------------------|
G|--------------------------------|--------------------------------|
D|2---2---2---2---2---2---2---2---|5---5---5---5---7---7---7---7---|
A|2---2---2---2---2---2---2---2---|5---5---5---5---7---7---7---7---|
E|0---0---0---0---0---0---0---0---|3---3---3---3---5---5---5---5---|

Guitar 2
E|0:------------------------------|3:--------------0:--------------|
B|0:------------------------------|3:--------------2:--------------|
G|1:------------------------------|0:--------------2:--------------|
D|2:------------------------------|0:--------------2:--------------|
A|2:------------------------------|2:--------------0:--------------|
E|0:------------------------------|3:------------------------------|

==========================================================================

{Verse 2}

Guitar 1
E|------------------------------------|---------------------------------|
B|------------------------------------|---------------------------------|
G|x-x-11-x--x-11-x-11-x-x-9-x-x-9-9:--|x-x-7-x-x-7-x-7-x-x-12-x-x-12-12:|
D|------------------------------------|---------------------------------|
A|x-x-9--x--x-9--x-9--x-x-7-x-x-7-7:--|x-x-5-x-x-5-x-5-x-x-10-x-x-10-10:|
E|------------------------------------|---------------------------------|
                                                                                x2
Guitar 2
E|--------------------------------|--------------------------------|
B|--------------------------------|--------------------------------|
G|--------------------------------|--------------------------------|
D|---4---4457---------------------|--------------------------------|
A|5h7-5---------------------------|--------------------------------|
E|----------------5/4\5/4\5-------|7-7-7-7-7\9\10/------3/2\3/2\3--|

==========================================================================

Guitar 1
E|------------------------------------|-----------------------------------|
B|------------------------------------|-----------------------------------|
G|x-x-11-x-x-11-11-11-x-x-9-x-x-9-9-9-|x-x-7-x-x-7-7-7-x-x-12-x-x-12-12-12|
D|------------------------------------|-----------------------------------|
A|x-x-9--x-x-9--9--9--x-x-7-x-x-7-7-7-|x-x-5-x-x-5-5-5-x-x-10-x-x-10-10-10|
E|------------------------------------|-----------------------------------|

Guitar 2
E|--------------------------------|--------------------------------|
B|--------------------------------|--------------------------------|
G|--------------------------------|--------------------------------|
D|---4------4---------------------|--------------------------------|
A|5h7-5--5h7-5------4--7-7-5-4----|2h4h5p2-2h4h55------------------|
E|---------------5h7-5------------|---------------2\3/2\3/2\3/2\3/2|
     pm                                pm

==========================================================================

Guitar 1
E|------------------------------------|----------------------------------|
B|------------------------------------|----------------------------------|
G|x-x-11-x-x-11-11-11-x-x-9-x-x-9-9-9-|x-x-7-x-x-7-7-7-x-x-12-x-x-12-x-12|
D|------------------------------------|----------------------------------|
A|x-x-9--x-x-9--9--9--x-x-7-x-x-7-7-7-|x-x-5-x-x-5-5-5-x-x-10-x-x-10-x-10|
E|------------------------------------|----------------------------------|

Guitar 2
E|--------------------------------|--------------------------------|
B|--------------------------------|--------------------------------|
G|--------------------------------|--------------------------------|
D|---4------4---------------------|--------------------------------|
A|5h7-5--5h7-5------4--7-7-5-4----|2h4h5p2-2h4h55-------h2---------|
E|---------------5h7-5------------|------------------3h5--3----3-3-|
     pm                                pm

==========================================================================
[ Tab from: http://www.guitartabs.cc/tabs/p/pillows/back_seat_dog_tab.html ]
Guitar 1
E|------------------------------------|-----------------------------------|
B|------------------------------------|-----------------------------------|
G|x-x-11-x-x-11-11-11-x-x-9-x-x-9-9-9-|x-x-7-x-x-7-7-7-x-x-12-x-x-12-12-12|
D|------------------------------------|-----------------------------------|
A|x-x-9--x-x-9--9--9--x-x-7-x-x-7-7-7-|x-x-5-x-x-5-5-5-x-x-10-x-x-10-10-10|
E|------------------------------------|-----------------------------------|

Guitar 2
E|--------------------------------|--------------------------------|
B|--------------------------------|--------------------------------|
G|--------------------------------|--------------------------------|
D|---4------4---------------------|--------------------------------|
A|5h7-5--5h7-5------4--7-7-5-4----|2h4h5p2-2h4h55------------------|
E|---------------5h7-5------------|---------------2\3/2\3/2\3/2\3/2|
     pm                                pm

==========================================================================

Guitar 1
E|------------------------------------|----------------------------------|
B|------------------------------------|----------------------------------|
G|x-x-11-x-x-11-11-11-x-x-9-x-x-9-9-9-|x-x-7-x-x-7-7-7-x-x-12-x-x-12-x-12|
D|------------------------------------|----------------------------------|
A|x-x-9--x-x-9--9--9--x-x-7-x-x-7-7-7-|x-x-5-x-x-5-5-5-x-x-10-x-x-10-x-10|
E|------------------------------------|----------------------------------|

Guitar 2
E|--------------------------------|--------------------------------|
B|--------------------------------|--------------------------------|
G|--------------------------------|--------------------------------|
D|---4------4---------------------|--------------------------------|
A|5h7-5--5h7-5------4--7-7-5-4----|2h4h5p2-2h4h55-------h2------h2-|
E|---------------5h7-5------------|------------------3h5--3--3h5--3|
     pm                                pm

==========================================================================

{Pre-Chorus}

Guitar 1
E|--------------------------------|--------------------------------|
B|--------------------------------|--------------------------------|
G|--------------------------------|----------------7:--------------|
D|4:--------------5:--------------|7:--------------7:------7:------|
A|4:--------------5:--------------|7:--------------5:------7:------|
E|2:--------------3:--------------|5:----------------------5:------|

Guitar 2
E|--------------------------------|----------------2:------0:------|
B|--------------------------------|----------------3:------2:------|
G|--------------------------------|----------------2:------2:------|
D|-----4:-------------------------|------7:--------0:------2:------|
A|--------------------------------|------------------------0:------|
E|2:---------2:---3:--------------|5:---------5:-------------------|

==========================================================================

{Chorus}

Guitar 1
E|--------------------------------|--------------------------------|
B|--------------------------------|--------------------------------|
G|--------------------------------|7---7---7---7---7---7---7---7---|
D|5---5---5---5---7---7---7---7---|7---7---7---7---7---7---7---7---|
A|5---5---5---5---7---7---7---7---|5---5---5---5---5---5---5---5---|
E|3---3---3---3---5---5---5---5---|--------------------------------|
                                                                            x3
Guitar 2
E|--------------------------------|--------------------------------|
B|-------------Guitar-2-----------|--------------------------------|
G|----------plays-something-------|-----------I-can't--------------|
D|------------here-that's---------|-----------make-it--------------|
A|------------very-light.---------|-------------out.---------------|
E|--------------------------------|--------------------------------|

==========================================================================

Guitar 1
E|--------------------------------|--------------------------------|
B|--------------------------------|--------------------------------|
G|--------------------------------|--------------------------------|
D|2---2---2---2---2---2---2---2---|5---5---5---5---7---7---7---7---|
A|2---2---2---2---2---2---2---2---|5---5---5---5---7---7---7---7---|
E|0---0---0---0---0---0---0---0---|3---3---3---3---5---5---5---5---|

Guitar 2
E|0:------------------------------|3:--------------0:--------------|
B|0:------------------------------|3:--------------2:--------------|
G|1:------------------------------|0:--------------2:--------------|
D|2:------------------------------|0:--------------2:--------------|
A|2:------------------------------|2:--------------0:--------------|
E|0:------------------------------|3:------------------------------|

==========================================================================

{Solo}

Guitar 1
E|----------------------------------------------------------------|
B|----------------------------------------------------------------|
G|----------------------------------------------------------------|
D|11b:------------------------------------------------------------|
A|--------12:-----------9:----9\10/9:----------9\10/9:------------|
E|---------------12:----------------------------------------------|

Guitar 1
E|---------------------------------------------------------------|
B|---------------------------------------------------------------|
G|---------------------------------------------------------------|
D|---------------------------------------------------------------|
A|10----9----7----5----7\17:--14--17--14--17--14--17:------------|
E|---------------------------------------------------------------|

Guitar 1
E|----------------------------------------------------------------|
B|----------------------------------------------------------------|
G|----------------------------------------------------------------|
D|14-14-14-14-14-14-14-14b-14b-14b-14b-14-14-14-14-14-12--12:-----|
A|----------------------------------------------------------------|
E|----------------------------------------------------------------|

Guitar 1
E|----------------------------------------------------------------|
B|----------------------------------------------------------------|
G|----------------------------------------------------------------|
D|14h16p14--12--11--12--14--14\16/14\16/14\16/14\16:--------------|
A|----------------------------------------------------------------|
E|----------------------------------------------------------------|

Guitar 1
E|----------------------------------------------------------------|
B|------------------------17--17------17---15--17--15--17---------|
G|------------------12\14---------14------------------------------|
D|16--17--19------------------------------------------------------|
A|------------17:-------------------------------------------------|
E|----------------------------------------------------------------|

Guitar 1
E|----------------------------------------------------------------|
B|17\19--19--19--19--19/17--17--17\20--20--20--20--20--20--20--20-|
G|----------------------------------------------------------------|
D|----------------------------------------------------------------|
A|----------------------------------------------------------------|
E|----------------------------------------------------------------|

Guitar 2
E|--------------------------------|--------------------------------|
B|--------------------------------|--------------------------------|
G|--------------------------------|--------------------------------|
D|---4------4-------------7-7-----|--------------------------------|
A|5h7-5--5h7-5------4-----7-7-----|2h4h5p2-2h4h55------h2----------|
E|---------------5h7-5----5-5-----|-----------------3h5--3---3-2-3-|
     pm                                pm

Guitar 2
E|--------------------------------|--------------------------------|
B|--------------------------------|--------------------------------|
G|--------------------------------|--------------------------------|
D|---4------4-------------7-7-----|--------------------------------|
A|5h7-5--5h7-5------4-----7-7-----|2h4h5p2-2h4h55------h2----------|
E|---------------5h7-5----5-5-----|-----------------3h5--3-3-2-3-2-|
     pm                                pm

==========================================================================

{Pre-Chorus}

Guitar 1
E|--------------------------------|--------------------------------|
B|--------------------------------|--------------------------------|
G|--------------------------------|----------------7:--------------|
D|4:--------------5:--------------|7:--------------7:------7:------|
A|4:--------------5:--------------|7:--------------5:------7:------|
E|2:--------------3:--------------|5:----------------------5:------|

Guitar 2
E|--------------------------------|----------------2:------0:------|
B|--------------------------------|----------------3:------2:------|
G|--------------------------------|----------------2:------2:------|
D|-----4:-------------------------|------7:--------0:------2:------|
A|--------------------------------|------------------------0:------|
E|2:---------2:---3:--------------|5:---------5:-------------------|

==========================================================================

{Chorus}

Guitar 1
E|--------------------------------|--------------------------------|
B|--------------------------------|--------------------------------|
G|--------------------------------|7---7---7---7---7---7---7---7---|
D|5---5---5---5---7---7---7---7---|7---7---7---7---7---7---7---7---|
A|5---5---5---5---7---7---7---7---|5---5---5---5---5---5---5---5---|
E|3---3---3---3---5---5---5---5---|--------------------------------|
                                                                            x3
Guitar 2
E|--------------------------------|--------------------------------|
B|-------------Guitar-2-----------|--------------------------------|
G|----------plays-something-------|-----------I-can't--------------|
D|------------here-that's---------|-----------make-it--------------|
A|------------very-light.---------|-------------out.---------------|
E|--------------------------------|--------------------------------|

==========================================================================

Guitar 1
E|--------------------------------|--------------------------------|
B|--------------------------------|--------------------------------|
G|--------------------------------|--------------------------------|
D|2---2---2---2---2---2---2---2---|5---5---5---5---7---7---7---7---|
A|2---2---2---2---2---2---2---2---|5---5---5---5---7---7---7---7---|
E|0---0---0---0---0---0---0---0---|3---3---3---3---5---5---5---5---|

Guitar 2
E|0:------------------------------|3:--------------0:--------------|
B|0:------------------------------|3:--------------2:--------------|
G|1:------------------------------|0:--------------2:--------------|
D|2:------------------------------|0:--------------2:--------------|
A|2:------------------------------|2:--------------0:--------------|
E|0:------------------------------|3:------------------------------|

==========================================================================

Guitar 1
E|--------------------------------|--------------------------------|
B|--------------------------------|--------------------------------|
G|--------------------------------|7---7---7---7---7---7---7---7---|
D|5---5---5---5---7---7---7---7---|7---7---7---7---7---7---7---7---|
A|5---5---5---5---7---7---7---7---|5---5---5---5---5---5---5---5---|
E|3---3---3---3---5---5---5---5---|--------------------------------|
                                                                       Repeat til end
Guitar 2
E|--------------------------------|--------------------------------|
B|-------------Guitar-2-----------|--------------------------------|
G|----------plays-something-------|-----------I-can't--------------|
D|------------here-that's---------|-----------make-it--------------|
A|------------very-light.---------|-------------out.---------------|
E|--------------------------------|--------------------------------|

==========================================================================
Comments